Song name
# A B C D E F G H I J K L M N O P Q R S T U V W X Y Z

Flip Kowlier - Dondernacht tab

Standard Tuning

|----------------------------------------------------------------------|
|----------------------------------------------------------------------|
|----------------------------------------------------------------------|
|----------------------------------------------------------------------|
|----------------------------------------2--4--------------------------|
|---5--5--4--2--0--0--2--4--5--5---------0--0--2--4--------------------|  x2

|--------------------------------|
|--------------------------------|
|--------------------------------|
|--------------------------------|
|--------------------------------|
|---5--5--4--2--0--0-------------| x2

|----------------------------------------------------------------------|
|----------------------------------------------------------------------|
|----------------------------------------------------------------------|
|----------------------------------------------------------------------|
|----------------------------------------2--4--------------------------|
|---5--5--4--2--0--0--2--4--5--5---------0--0--2--4--------------------|  x1

This is my first tab, i'm sure its 100% correct, because I saw him playing it from 2m :)
Tap to rate this tab
 
# A B C D E F G H I J K L M N O P Q R S T U V W X Y Z