Song name
# A B C D E F G H I J K L M N O P Q R S T U V W X Y Z

Flip Nixon - Surfer Song tab

#----------------------------------PLEASE NOTE--------------------------------#
#This file is the author's own work and represents their interpretation of the#
#song. You may only use this file for private study, scholarship, or research.#
#-----------------------------------------------------------------------------#
#-- File created with Instab - http://www.pconline.com/~smcarey/instab.html --#
#-----------------------------------------------------------------------------#

Author/Artist: Flip Nixon
Title: Surfer song
Album: F.L.I.P
Transcribed by: Sam Felstead
Email: Flaming_fudge@hotmail.com

I First heard this song on Kranked 5 and thort it was pretty sweet
If u have ne complaints or corrections, email me bout it
Cheerz

INTRO:

(Guitar 1)
-11-11-10-10-9-9-9-8----------------------------------------------------------|
------------------------------------------------------------------------------|
------------------------------------------------------------------------------|
------------------------------------------------------------------------------|
------------------------------------------------------------------------------|
------------------------------------------------------------------------------|

(Guitar 2)
------------------------------------------------------------------------------|
------------------------------------------------------------------------------|
------------------------------------------------------------------------------|
--3-3---7-7---11-11-11--10-10-10----------------------------------------------|
--3-3---7-7---11-11-11--10-10-10----------------------------------------------|
--1-1---5-5---9--9--9---8--8--8-----------------------------------------------|

VERSE:

------------------------------------------------------------------------------|
------------------------------------------------------------------------------|
------------------------------------------------------------------------------|
------------------------------------------------------------------------------|
-------8----------------------------------------------------------------------|
-9-8-9---9-8------------------------------------------------------------------|


PRE-CHORUS:

Palm muted
------------------------------------------------------------------------------|
------------------------------------------------------------------------------|
------------------------------------------------------------------------------|
--3-3---7-7---11-11-11--10-10-10------------------------------------X2--------|
--3-3---7-7---11-11-11--10-10-10----------------------------------------------|
--1-1---5-5---9--9--9---8--8--8-----------------------------------------------|

Open
------------------------------------------------------------------------------|
------------------------------------------------------------------------------|
------------------------------------------------------------------------------|
--3-3---7-7---11-11-11--10-10-10----------------------------------X2----------|
--3-3---7-7---11-11-11--10-10-10----------------------------------------------|
--1-1---5-5---9--9--9---8--8--8-----------------------------------------------|

CHORUS:
------------------------------------------------------------------------------|
------------------------------------------------------------------------------|
------------------------------------------------------------------------------|
--11-11-11-11--6-6-6-6-6-6-6--8-8-8-8-8--10-10-10-----------------------------|
--11-11-11-11--6-6-6-6-6-6-6--8-8-8-8-8--10-10-10--7h10p7h10------------------|
--9--9--9--9---4-4-4-4-4-4-4--6-6-6-6-6--8--8--8------------------------------|


------------------------------------------------------------------------------|
------------------------------------------------------------------------------|
------------------------------------------------------------------------------|
--11-11-11-11--6-6-6-6-6-6-6--3-3-3-3-3--10-10-10-------x-x-10-x-x-10---------|
--11-11-11-11--6-6-6-6-6-6-6--3-3-3-3-3--10-10-10-------x-x-10-x-x-10---------|
--9--9--9--9---4-4-4-4-4-4-4--1-1-1-1-1--8--8--8--------x-x-8--x-x-8----------|

------------------------------------------------------------------------------|
------------------------------------------------------------------------------|
------------------------------------------------------------------------------|
--11-11-11-11--6-6-6-6-6-6-6--8-8-8-8-8--10-10-10-----------------------------|
--11-11-11-11--6-6-6-6-6-6-6--8-8-8-8-8--10-10-10--7h10p7h10------------------|
--9--9--9--9---4-4-4-4-4-4-4--6-6-6-6-6--8--8--8------------------------------|


------------------------------------------------------------------------------|
------------------------------------------------------------------------------|
------------------------------------------------------------------------------|
--11-11-11-11--6-6-6-6-6-6-6--3-3-3-3-3--10-10-10-------x-x-10-x-x-10---------|
--11-11-11-11--6-6-6-6-6-6-6--3-3-3-3-3--10-10-10-------x-x-10-x-x-10---------|
--9--9--9--9---4-4-4-4-4-4-4--1-1-1-1-1--8--8--8--------x-x-8--x-x-8----------|


BRIDGE:

------------------------------------------------------------------------------|
------------------------------------------------------------------------------|
------------------------------------------------------------------------------|
--3-3---7---------------------------------------------------------------------|
--3-3---7---------------------------------------------------------------------|
--1-1---5---------------------------------------------------------------------|

well, thats it
listen 2 the song 4 the timing

Hasta La Vista
Tap to rate this tab
 
# A B C D E F G H I J K L M N O P Q R S T U V W X Y Z