Song name
# A B C D E F G H I J K L M N O P Q R S T U V W X Y Z

Flipper - Sex Bomb tab

Artist: Flipper
Song: Sex Bomb
Album: Generic Flipper

This is the only riff played throught the entire song:

E----------------
B----------------
G----------------
D--7--2-4-2-4-2--
A--7--2-4-2-4-2--
E--5--0-2-0-2-0--

With the Bass playing

G----------------
D----------------
A----------------
E--5--0-2-0-2-0--

But that Might get a little fast for the guitar to switch from the E to
the F# so I suggest playing it in dropped D ( which I beleive is how it is
played )

E----------------
B----------------
G----------------
D--7--2-4-2-4-2--
A--7--2-4-2-4-2--
D--7--2-4-2-4-2--

And you could drop the Bass for the hell of it

G----------------
D----------------
A----------------
D--7--2-4-2-4-2--
Tap to rate this tab
 
# A B C D E F G H I J K L M N O P Q R S T U V W X Y Z