Song name
# A B C D E F G H I J K L M N O P Q R S T U V W X Y Z

Flipron - Gravity Calling tab

This is a great song off their album of the same name, and the first Flipron song I have tabbed!

http://www.flipron.co.uk/

It's really just these two riffs for the guitar, with a few slides in the verse I think, 
organ makes up the rest...

Intro:
e:----|:------------------------------------------------------:|
A:----|:------------------------------------------------------:|
G:----|:------------------------------------------------------:|
D:----|:----3-3---3-----------------------------------3-------:|
A:--0-|:5-5-----5--------1--------------4-4---4-4-5-5---5-0-0-:|
E:----|:-------------3-3---3--3-2-3-5-5-----5-----------------:|


Fill/Outro: ("I'm falling, I'm falling")
e:------------------------------|
A:-7------7------5------5---8---|
G:---7--7---7--7---6--6---6---7-|
D:------------------------------|
A:------------------------------|
E:------------------------------|


Go find an organist and have fun! :)
Tap to rate this tab
# A B C D E F G H I J K L M N O P Q R S T U V W X Y Z