Song name
# A B C D E F G H I J K L M N O P Q R S T U V W X Y Z

Flipsyde - No More tab

-----------------------------------------------------------------------------
			   No More - Matt Pond PA
-----------------------------------------------------------------------------
Tabbed by: mat
Email: anexperimat@gmail.com

Tuning: standard


*drumroll* ..snare!

Guitar 1:

e|-----6-----5----------6--------------6-----|
B|----------------8------8--------6-----6----|
G|-7-----7----------------8-7------------7---|
D|---8-----7----8----8--------8-8---8-----8--|
A|-------------------------------------------|
E|-------------------------------------------|

This part has an effect on it:

e|-----------|
B|-----------|
G|---7---87--|
D|-8---8-----|
A|-----------|
E|-----------|


e|---6-----5-------------6--------------6-----|
B|-----------------8------8--------6-----6----|
G|-7-----7---7-------------8-7------------7---|
D|---------------8----8--------8-8---8-----8--|
A|--------------------------------------------|
E|--------------------------------------------|

e|---------|
B|---------|
G|--7-8-7--| more of this played gently with effect over second guitar
D|---------|
A|---------|
E|---------|


e|--6---5-----------6--------------6----------------|
B|-------------8-----8--------6-----6---------------|
G|-7---7-----8----8---8-7------------7-----7----87--|
D|------------------------8-8---8-----8--8---8------|
A|--------------------------------------------------|
E|--------------------------------------------------|

e|--6---5------------6---6--------------6---------------|
B|-------------8---8---8--8--------6-----6--------------|
G|-7---7--7----------------8-7------------7-----7----87-|
D|-----------8----8------------8-8---8-----8--8---88----|
A|------------------------------------------------------|
E|------------------------------------------------------|


Guitar 2:

     Bb   Dadd9  Ebadd9   Bb
e|---6-6---5-5---6-6---6--66-6--6---------------|
B|---6-6---5-5---6-6---6--66-6--6---------------|
G|---7-7---7-7---8-8---8--77-7--7---------------|
D|---8-8---7-7---8-8---8--88-8--8---------------|
A|---8-8---5-5---6-6---6--88-8--8--6-6---9-9----|
E|---6-6------------------66-6--6---------------|
Tap to rate this tab
# A B C D E F G H I J K L M N O P Q R S T U V W X Y Z