Guitaretab - guitar tabs
Song name
# A B C D E F G H I J K L M N O P Q R S T U V W X Y Z

Flipsyde - Train tab

After I looked about everywhere to find the gutiar solo of this song, I gave up and 
it by myself. The Intro is very easy and the solo very fast played...just try to play it 
not as fast and someday you'll catch up! *thx steven*

Intro:

e|------------------31------------------------|
H|----65-----65------------65-----------------|
G|--------------------------------------------|
D|-00-----00----------------------------------|
A|---------------11-----00--------------------|
E|--------------------------------------------|

guitar solo:

e|----------------------------------------------------------------8-10-s12-8--|
H|---------------------8-10-11-10-8----8---------------------8-10-------------|
G|--7-9-10-7----7-9-10--------------10-----7-9-10-7---7-9-10------------------|
D|----------------------------------------------------------------------------|
A|----------------------------------------------------------------------------|
E|----------------------------------------------------------------------------|
[ Tab from: http://www.guitaretab.com/f/flipsyde/141421.html ]
e|--13-13-12-12-8-8-----------------------------------------------------------|
H|------------------11-11-10-10-8-8-------------------------------------------|
G|----------------------------------10-10-9-9-10-9-7-6-7-9-s10-9-7-9-10-9-10--|
D|----------------------------------------------------------------------------|
A|----------------------------------------------------------------------------|
E|----------------------------------------------------------------------------|

e|------------------------------------8-10-12-8-10-12-13-15-------------------|
H|----------------8-10-11-10--8-10-11-----------------------------------------|
G|--7-9-10-7-9-10-------------------------------------------------------------|
D|----------------------------------------------------------------------------|
A|----------------------------------------------------------------------------|
E|----------------------------------------------------------------------------|

e|--17-17-17-17-17-17-15-13-s15-13-12---8-10----------------------------------|
H|----------------------------------------------------------------------------|
G|----------------------------------------------------------------------------|
D|----------------------------------------------------------------------------|
A|----------------------------------------------------------------------------|
E|----------------------------------------------------------------------------|

s=slide
Related for Train tab