Song name
# A B C D E F G H I J K L M N O P Q R S T U V W X Y Z

Flipsyde - Spun tab

Chord progression: Dm Am E Am 


Guitar 1:

e|-------------17-17--13------17--13------------17-17---------17-------------|
B|---15-15-15-------------15----------13-13-13---------17--13----------------|
G|---------------------------------------------------------------------------|
D|---------------------------------------------------------------------------|
A|---------------------------------------------------------------------------|
E|---------------------------------------------------------------------------|


e|-------------16-16--12-------16-12-------------17----------17--------------|
B|---12-12-12-------------12-----------13-13-13------17--13------17----------|
G|---------------------------------------------------------------------------|
D|---------------------------------------------------------------------------|
A|---------------------------------------------------------------------------|
E|---------------------------------------------------------------------------|


Guitar 2:

e|---13--10-12-------10---------12-13--10-12---17-16--16-17------------------|
B|--------------13-------12-13-----------------------------------------------|
G|---------------------------------------------------------------------------|
D|---------------------------------------------------------------------------|
A|---------------------------------------------------------------------------|
E|---------------------------------------------------------------------------|


Tap to rate this tab
# A B C D E F G H I J K L M N O P Q R S T U V W X Y Z