Song name
# A B C D E F G H I J K L M N O P Q R S T U V W X Y Z

Flipsyde - Revolutionary Beat tab

-------------------------------------------------------------------------------
			     Revolutionary Beat - Flipsyde
-------------------------------------------------------------------------------
Tabbed by: IslamisLight
Email:Whatsupson?@thisisntanEmail.com bayarea6fifty@yahoo.com

Tuning:Standard
INTRO SOLO
e|-------------------------------------------------------------------------------|
B|-----10h12~~-----12--13~--12-------12h13p12~--------12-13--15-13-15/17--12-----|
G|--------------14---------------14---------------/s14---------------------------|
D|-------------------------------------------------------------------------------|
A|-------------------------------------------------------------------------------|
E|-------------------------------------------------------------------------------|

e|---------------------------------------------------------------------------|
B|---------------------------------------------------------------------------|
G|-11h12--12h14---12--11--11h12----------------------------------------------|
D|-------------------------------14-----10/12--10--9s10--9~~-----------------|
A|---------------------------------------------------------------------------|
E|---------------------------------------------------------------------------|
SOLO IN BACK OF VERSE
e|---------------------------------------------------------------------------|
B|--------12---------------------13------12----------------------------------|
G|-----------12--14--11--------------14-------12-----------------------------|
D|---------------------------------------------------------------------------|
A|---------------------------------------------------------------------------|
E|---------------------------------------------------------------------------|
END SOLO,
Start with intro solo then jump into-
your also going to have to figure out the rhythm and tremolo picks on your own i will
a "t" to represent them.

e|--------12----------12----------12---------12---------12-----------12------|
B|-12---------15b17-------------------15b17---------------12-----------------|
G|-14b16-------------------14b16-----------------14b16--------14b16----------|
D|---------------------------------------------------------------------------|
A|---------------------------------------------------------------------------|
E|---------------------------------------------------------------------------|

e|---------12------------------------------------------------------12----------|
B|--15b17----12-------------------------14----12-----------------12-----15b17--|
G|-------------14b15r14p12---14p12------14----12---14--12--14b16---------------|
D|----------------------------------14-----------------------------------------|
A|-----------------------------------------------------------------------------|
E|-----------------------------------------------------------------------------|

e|--12---------12---------12---------12---12-----------12--------------------|
B|-----------------15b17-------------12---12--------12-----15b17-------------|
G|------14b16-----------------14b16-----------14b16--------------------------|
D|---------------------------------------------------------------------------|
A|---------------------------------------------------------------------------|
E|---------------------------------------------------------------------------|
these V's are arrows

this section of bends is a chord while holding the bend from 15b17 hold this and don' release
                  VVVVVVVVVVVVVVVVVVVVVVVVVVVVVVVVVV
e|--12--------12--12------12----12----12----12----12------12------12---------|
B|------15b17-----15b17---15b17-15b17-15b17-15b17-15b17---15b17------12------|
G|---------------------------------------------------------------------------|
D|---------------------------------------------------------------------------|
A|---------------------------------------------------------------------------|
E|---------------------------------------------------------------------------|
  v*these are held bends from 17b19      V**Catch the B sting in the bend w/wah
                                    vvvvv*  VVVVVVVV**
e|---17b19-17b19-17b19-17b19--17b19-19-19---17b18r17----17-17-17--15-15--------|
B|------------------------------------------17b18r17----17-17-17--15-15--------|
G|-----------------------------------------------------------------------------|
D|-----------------------------------------------------------------------------|
A|-----------------------------------------------------------------------------|
E|-----------------------------------------------------------------------------|

e|---15--12--------------------------------------------------------------------|
B|-----------12-----14--12------14--12\----------------------------------------|
G|------------------14--12------14--12\---------0-----0-----0-----0-0h2-0------|
D|--------------------------14-------------0-0h2---0h2---0h2--0h2--------------|
A|-----------------------------------------------------------------------------|
E|-----------------------------------------------------------------------------|

e|-----------------------------------------------------------------------------|
B|---------------------------------------------8-------------------------------|
G|---------0-----0-0h2-0-0---------0-------/9------9---------------------------|
D|-0-0-0h2---0h2-------------0-0h2---------------------------------------------|
A|-----------------------------------------------------------------------------|
E|-----------------------------------------------------------------------------|
This part your can figure out the strumming FTMP but these are the chords
e|-------------------------------------------------------------------------------|
B|-----8--8--8--10--8--8--10--8--------------------------------------------------|
G|-----9--9--9--9---9--9--9---9--------------------------------------------------|
D|-------------------------------------------------------------------------------|
A|-------------------------------------------------------------------------------|
E|-------------------------------------------------------------------------------|
After it starts strumming the 8b9g chord fast then goes into the final tremolo.

for this section hold the 9G tremolo until you reach 15 on up on the B string
e|-------------------------------------------------------------------------------|
B|--12t--13t---10t--12t-13t--15t--17t--19t-20t-----------------------------------|
G|---9t---9t----9t---9t--9t------------------------------------------------------|
D|----------------------------------------------\--------------------------------|
A|-------------------------------------------------------------------------------|
E|-------------------------------------------------------------------------------|

e|-------------------------------------------------------------------------------|
B|-------------------------------------------------------------------------------|
G|-------------------------------------------------------------------------------|
D|-----4--5--2~---7/9-9--5/7-5--4--5--2--7/9-7--10-9-9-9-9--4--5--2-ETC...-------|
A|-------------------------------------------------------------------------------|
E|-------------------------------------------------------------------------------|

Ftmp this is how its played listen to the solo over and over again to get the 
proper rhythm and sound.


************************************
+++++++ t   tremolo
| /   slide up
| \   slide down
| h   hammer-on
| p   pull-off
| ~   vibrato
| +   harmonic
| x   Mute note
| b   Bend
| pb  Pre-bend
| br  Bend release
| pbr Pre-bend release
| brb Bend release bend

************************************
Tap to rate this tab
# A B C D E F G H I J K L M N O P Q R S T U V W X Y Z