Song name
# A B C D E F G H I J K L M N O P Q R S T U V W X Y Z

Flipsyde - Someday tab

Flipsyde - Someday guitar solo 


 e|------------------------------------------------------------------------|
 B|------------------------------------------------------------------------|
 G|--------------------------------7--------------------7-9-10-9-7---------|
 D|--777--6-7-9-10------777--6-7-9--------777--6-7-9-10------------10-9-9--|
 A|------------------------------------------------------------------------|
 E|------------------------------------------------------------------------|


 e|------------------------------------------------12-12-12-12-12----------|
 B|----------------------------------10-8h10-13-15-------------------------|
 G|--------------------7-9-10-9-10-9---------------------------------------|
 D|--999--10-9-7-9-10------------------------------------------------------|
 A|------------------------------------------------------------------------|
 E|------------------------------------------------------------------------|


 e|---5-8-7-8-5-8-7-8-7---10-8-10-7-10-8-10-8---12-10-12-8-12-10-12--------|
 B|---5--------------------------------------------------------------------|
 G|---5--------------------------------------------------------------------|
 D|--7---------------------------------------------------------------------|
 A|------------------------------------------------------------------------|
 E|------------------------------------------------------------------------|


                                                     2x

 e|---1212121212-1313131313----| |------12-15-13-12----13-12--------------:|
 B|----------------------------| |----13------------15--------------------:|
 G|----------------------------| |--14------------------------------------:|
 D|----------------------------| |----------------------------------------:|
 A|----------------------------| |----------------------------------------:|
 E|----------------------------| |----------------------------------------:|


 

 e|----12-15-13-12----13-12------------------------------------------------|
 B|---13------------15-----15-13-------------------------------------------|
 G|--14--------------------------------------------------------------------|
 D|------------------------------------------------------------------------|
 A|------------------------------------------------------------------------|
 E|------------------------------------------------------------------------|
Tap to rate this tab
# A B C D E F G H I J K L M N O P Q R S T U V W X Y Z