Guitaretab - guitar tabs
Song name
# A B C D E F G H I J K L M N O P Q R S T U V W X Y Z

Flipsyde - Revolutionary Beat tab

-------------------------------------------------------------------------------
			     REVOLUTIONARY BEAT-FLIPSYDE
-------------------------------------------------------------------------------
Tabbed by: TRAVIS EDDY
Email: TGE23@DREXEL.EDU
[ Tab from: http://www.guitaretab.com/f/flipsyde/72406.html ]
Tuning: STANARD
INTRO: BACKGROUND GUITAR- PLAYED TROUGHOUT WHOLE SONG
e|---------------------------------------------------------------------------|
B|-------------------1----1--------------------------------------------------|
G|-----0----0-------2-2--0-0--0----------------------------------------------|
D|----2-2--0-0--0--2----2----2-----------------------------------------------|
A|---2----2----2--0----3----3------------------------------------------------|
E|--0----3----3--------------------------------------------------------------|
INTRO: SOLO GUITAR
e|----------------------------------10h12------------------------------------|
B|12--12-13-12-12h13p12--12-13-12-------12----------------------------------|
G|--14--------14--------14--------14-------11-121412-11h12p9-----------------|
D|-----------------------------------------------------------12h14p10-10h12p9|
A|---------------------------------------------------------------------------|
E|---------------------------------------------------------------------------|
VERSE BACKGROUND GUITAR
e|---------------------------------------------------------------------------|
B|--12--10---13-10-12--------------------------------------------------------|
G|----12--11---------12------------------------------------------------------|
D|---------------------------------------------------------------------------|
A|---------------------------------------------------------------------------|
E|---------------------------------------------------------------------------|
Related for Revolutionary Beat tab