Guitaretab - guitar tabs
Song name
# A B C D E F G H I J K L M N O P Q R S T U V W X Y Z

Flo Rida - Get Low Travis Barker Rock tab

------------------------------------------------------------------------------
Get Low (Travis Barker Rock Remix) - 	Flo Rida Feat. T-Pain 
------------------------------------------------------------------------------
Tabbed by: Famous Blinker
Email: skoolis_notkool@hotmail.com

Tuning: Standard

Intro:
[ Tab from: http://www.guitaretab.com/f/flo-rida/105535.html ]
e|---------------------------------------------------------------------------|
B|---------------------------------------------------------------------------|
G|---------------------------------------------------------------------------|
D|-----8--8--------8--8--------8--8--------8--8------------------------------|
A|--6--------6--6--------6--6--------6--6------------------------------------|
E|---------------------------------------------------------------------------|

Play For The Rest Of The Song:

e|---------------------------------------------------------------------------|
B|---------------------------------------------------------------------------|
G|---------------------------------------------------------------------------|
D|--------8--8--6--6--44--------8--8--6--6--4--4--------8--8--6--6--44-----|
A|--6--6-------------------6--6--------------------6--6----------------------|
E|---------------------------------------------------------------------------|
Related for Get Low Travis Barker Rock tab