Song name
# A B C D E F G H I J K L M N O P Q R S T U V W X Y Z

Flo Rida - Low tab

Low

e|----------6-6-6-7-6-7-6-6-4-4-------------------------------|
b|----4-4-4-----------------------7-7-6-4---------------------|
g|------------------------------------------------------------|
d|------------------------------------------------------------|
a|------------------------------------------------------------|
e|------------------------------------------------------------|


e|----------6-6-6-7-6-7-6-6-4-4-------------------------------|
b|----4-4-4-----------------------7-7-6-----------------------|
g|--------------------------------------8---------------------|
d|------------------------------------------------------------|
a|------------------------------------------------------------|
e|------------------------------------------------------------|

2x of each i think

im a newbie so hope ya like it
Tap to rate this tab
# A B C D E F G H I J K L M N O P Q R S T U V W X Y Z