Song name
# A B C D E F G H I J K L M N O P Q R S T U V W X Y Z

Flo Rida - Right Round tab

My first tab, i hope you guys like it.
It isnīt much, but you will recognise it.

You have to play it pretty fast:

alternative 1.1

e|---------------------------------------------------------------|
B|-----------1--1-----3----------3--1--------3--1----------------|
G|--2--2--2--------0-----2--2-2-------0-0-2--------2-------------|
D|---------------------------------------------------------------|
A|---------------------------------------------------------------|
E|---------------------------------------------------------------|

alternative 1.2

e|---------------------------------------------------------------|
B|-----------1--1-----3----------3--1--------3--1----------------|
G|--2--2--2--------0-----2--2-2-------0-0-2--------2-------------|
D|--------------------0----------0-----------0-------------------|
A|--0--0--0--3--3--------0--0-0-----3-----0-----3--0-------------|
E|-----------------3------------------3-3------------------------|

alternative 2

e|-----------1--1-----3----------3--1----------3--1--------------|
B|--3--3--3--------1-----3--3-3--------1-1--3--------3-----------|
G|---------------------------------------------------------------|
D|---------------------------------------------------------------|
A|---------------------------------------------------------------|
E|---------------------------------------------------------------|

Good luck with it.
Tap to rate this tab
# A B C D E F G H I J K L M N O P Q R S T U V W X Y Z