Guitaretab - guitar tabs
Song name
# A B C D E F G H I J K L M N O P Q R S T U V W X Y Z

Flo Rida - Club Cant Handle Me chords

Highlighted       Show chord diagrams
I know i only put three chords in this tab but none of the other versions got it right. 
the same chords to Imagine by John Lennon { C Cmaj7 F }. I think it repeats the entire 
but I'm not sure, so I put it as an intro
[ Tab from: http://www.guitaretab.com/f/flo-rida/252070.html ]
  C                       Cmaj7                   F
e-0--0--0--0--0--0--0--0--0--0--0--0--0--0--0--0--1--1--1--1--1--1--1--1--|
B-1--1--1--1--1--1--1--1--0--0--0--0--0--0--0--0--1--1--1--1--1--1--1--1--|
G-0--0--0--0--0--0--0--0--0--0--0--0--0--0--0--0--2--2--2--2--2--2--2--2--|
D-2--2--2--2--2--2--2--2--2--2--2--2--2--2--2--2--3--3--3--3--3--3--3--3--|
A-3--3--3--3--3--3--3--3--3--3--3--3--3--3--3--3--3--3--3--3--3--3--3--3--|
E-------------------------------------------------1--1--1--1--1--1--1--1--|

  F                 Fsus2
e-1--1--1--1--1--1-(1)(1)-|
B-1--1--1--1--1--1-(1)(1)-|
G-2--2--2--2--2--2--0--0--|
D-3--3--3--3--3--3--3--3--|
A-3--3--3--3--3--3--3--3--|
E-1--1--1--1--1--1--1--1--|
Related for Club Cant Handle Me chords
×
Best way to learn
"Club Cant Handle Me"