Song name
# A B C D E F G H I J K L M N O P Q R S T U V W X Y Z

Flo Rida - Club Cant Handle Me tab

-------------------------------------------------------------------------------
 		 Club Can't Handle Me by Flo Rida feat. David Guetta
-------------------------------------------------------------------------------

Tabbed by: ibreakyoudont
Email: ibreakyoudont@googlemail.com

Tuning: e a d g b e (standard)

I like to play to the song to make it more rock =D

- so for that play it with the following powerchords,
just get the rhythm in there with your left fretting hand.
i use palm mutes in between the chords, try to invent :-)

[Intro & Verse Part I)
e|---------------------------------------------------------------------------|
B|---------------------------------------------------------------------------|
G|--5-5-5------------------5-5-5---------------------------------------------|
D|--5-5-5--2-2-2--1-1-1----5-5-5--2-2-2---1-1-1------------------------------|
A|--3-3-3--2-2-2--3-3-3----3-3-3--2-2-2---3-3-3------------------------------|
E|--x-x-x--0-0-0--3-3-3----x-x-x--0-0-0---3-3-3------------------------------|

Verse Part II
e|---------------------------------------------------------------------------|
B|---------------------------------------------------------------------------|
G|----------5-5-5-------------------5-5-5------------------------------------|
D|--7-7-7---5-5-5---1-1-1----7-7-7--5-5-5---1-1-1----------------------------|
A|--7-7-7---3-3-3---3-3-3----7-7-7--3-3-3---3-3-3----------------------------|
E|--5-5-5-----------3-3-3----5-5-5----------3-3-3----------------------------|

Chorus is the same like verses
e|---------------------------------------------------------------------------|
B|---------------------------------------------------------------------------|
G|--5-5-5------------------5-5-5---------------------------------------------|
D|--5-5-5--2-2-2--1-1-1----5-5-5--2-2-2---1-1-1------------------------------|
A|--3-3-3--2-2-2--3-3-3----3-3-3--2-2-2---3-3-3------------------------------|
E|--x-x-x--0-0-0--3-3-3----x-x-x--0-0-0---3-3-3------------------------------|

and the second part of the chorus, too.
e|---------------------------------------------------------------------------|
B|---------------------------------------------------------------------------|
G|----------5-5-5-------------------5-5-5------------------------------------|
D|--7-7-7---5-5-5---1-1-1----7-7-7--5-5-5---1-1-1----------------------------|
A|--7-7-7---3-3-3---3-3-3----7-7-7--3-3-3---3-3-3----------------------------|
E|--5-5-5-----------3-3-3----5-5-5----------3-3-3----------------------------|


the bridge, like the chorus. very straight forward tune. :)
e|---------------------------------------------------------------------------|
B|---------------------------------------------------------------------------|
G|--5-5-5------------------5-5-5---------------------------------------------|
D|--5-5-5--2-2-2--1-1-1----5-5-5--2-2-2---1-1-1------------------------------|
A|--3-3-3--2-2-2--3-3-3----3-3-3--2-2-2---3-3-3------------------------------|
E|--x-x-x--0-0-0--3-3-3----x-x-x--0-0-0---3-3-3------------------------------|


and end on

e|-----|
B|-----|
G|--5--|
D|--5--|
A|--3--|
E|--x--|
Tap to rate this tab
# A B C D E F G H I J K L M N O P Q R S T U V W X Y Z