Song name
# A B C D E F G H I J K L M N O P Q R S T U V W X Y Z

Flo Rida - Good Feeling chords

Highlighted       Show chord diagrams
Hey Guys, that's the right version:
You can play the whole chords, so like:

    C#m  E    B    A
e---4----7----7----5-|
B---5----9----7----5-|
G---6----9----8----6-|
D---6----9----9----7-|
A---4----7----9----7-|
E-------------7----5-|

or tab:

    C#m  E    B    A
G---6----9-----------|
D---6----9----9----7-|
A---4----7----9----7-|
E-------------7----5-|

You have to play this all the time :P

C#m E B A

Have fun^^

Greetings

Paul
Tap to rate this tab
# A B C D E F G H I J K L M N O P Q R S T U V W X Y Z