Song name
# A B C D E F G H I J K L M N O P Q R S T U V W X Y Z

Flo Rida - Whistle tab

Flo Rida - Whistle

Standard Tuning, no capo.
Chords: Am F C G


e|-------------5--3--0--30-------------0---------0-----------------------|
B|-------1-----------------------5--------3--0--3------------------------|
G|----------2--------2--------------5----(4)----0------------------------| 2X
D|----2--------3--------3-----5-----------0------------------------------|
A|-0--------------3--------3---------------------------------------------|
E|-------------------------------------3---------------------------------|

e|-------------------------------------------------------------------------|
B|-1--1--1-----1--1--------1-----3--3-----0--0--0--------------------------|
G|-------2--2--------2--2-----------0-----------0--------------------------|
D|----2-----------------3-----2-----------0--------------------------------|
A|-0--------------3--------3-----------------------------------------------|
E|-------------1-----------------------3-----------------------------------|

e|-------------------------------------------------------------------------|
B|-1--1--1-----1--1--------1-----3--3--------------------------------------|
G|-------2--2--------2--2-----------0--------------------------------------|
D|----2-----------------3-----2--------------------------------------------|
A|-0--------------3--------3-----------------------------------------------|
E|-------------1-----------------------------------------------------------|

e|-------------0--0--------------------0-----0-----------------------------|
B|-------1--3--------3--3--1--1--3--3--------1--3-----0--0--0--------------|
G|----------0-----------2--------2--------------0-----------0--------------|
D|----0-----------2-----------------3-----2-----------0--------------------|
A|-------------0--------------3--------3-----------------------------------|
E|-3-----------------------1-----------------------3-----------------------|

e|-------------------------------------------------------------------------|
B|-1--1--1-----1--1--------------1-----3------0-1--------------------------|
G|-------2--2--------2--2-----------0-----------0--------------------------|
D|----2-----------------3-----2-----------0--------------------------------|
A|-0--------------3--------3-----------------------------------------------|
E|-------------1-----------------------3-----------------------------------|
Tap to rate this tab
 
# A B C D E F G H I J K L M N O P Q R S T U V W X Y Z