Song name
# A B C D E F G H I J K L M N O P Q R S T U V W X Y Z

Flo Rida - Whistle chords

Highlighted       Show chord diagrams
-----------------------------------------------------------------------------
                            whistle - Flo Rida
-----------------------------------------------------------------------------
    am            F                 c                G    
e|---------------------------------------------------------------------------|
B|----------1---------------1---------------1------------------3-------------|
G|------2------2--------2------2-------0--------0---------0---------0--------|
D|---------------------------------------------------------------------------|
A|--0-------------------------------3----------------------------------------|
E|----------------1----------------------------------3-----------------------|

    am            F                 c                G    
e|---------------------------------------------------------------------------|
B|----------1---------------1---------------1------------------3-------------|
G|------2------2--------2------2-------0--------0---------0---------0--------|
D|---------------------------------------------------------------------------|
A|--0-------------------------------3----------------------------------------|
E|----------------1----------------------------------3-----------------------|


(repeat intro)
can you blow my whistle baby, whistle baby
let me know
girl iím gonna show you how to do it
and we start real slow
you just put your lips together
and you come real close
can you blow my whistle baby, whistle baby
here we go

(full chords)
am F c G

am           F
iím betting you like people
c               G
and iím betting you love freak mode
am          F
and iím betting you like girls that give love and girls
c           G
That stroke your little ego
am             F
i bet yo iím guilty yo honor
c                G
but thatís how we live in my genre
am             F
when i hell i pay rottweiler
c              G
thereís only one flo, and one rida
am             F
iím a damn shame
c                   G
order more champagne, pullin them hamstring
am             
tryna put it on ya
F                  c               
bet your lips spin back around corner
              G
slow it down baby take a little longer



(repeat intro)
can you blow my whistle baby, whistle baby
let me know
girl iím gonna show you how to do it
and we start real slow
you just put your lips together
and you come real close
can you blow my whistle baby, whistle baby
here we go

(full chords)
whistle baby, whistle baby,
whistle baby, whistle baby

itís like everywhere i go
my whistle ready to blow
shorty donít even know
she can get anybody low
permission not approved
itís okay, itís under control
show me soprano, cause girl you can handle
baby we start snagging, you come in part clothes
girl iím losing wing, my bugatti the same road
show me your perfect pitch,
you got it my banjo
talented with your lips, like you blew out candles
so amusing, now you can make a whistle with the music
hope you ainít got no issue, you can do it
give me the perfect picture, never lose it

can you blow my whistle baby, whistle baby
let me know
girl iím gonna show you how to do it
and we start real slow
you just put your lips together
and you come real close
can you blow my whistle baby, whistle baby
here we go

whistle baby, whistle baby,
intro



whistle baby, whistle baby

go girl you can work it
let me see your whistle while you work it
iímma lay it back, donít stop it
cause i love it how you drop it, drop it, drop it, on me
now, shorty let that whistle blow (ohohohoh)
yeah, baby let that whistle blow (ohohohoh)

can you blow my whistle baby, whistle baby
let me know
girl iím gonna show you how to do it
and we start real slow
you just put your lips together
and you come real close
can you blow my whistle baby, whistle baby
here we go

whistle baby, whistle baby,
whistle baby, whistle baby
Tap to rate this tab
# A B C D E F G H I J K L M N O P Q R S T U V W X Y Z