Song name
# A B C D E F G H I J K L M N O P Q R S T U V W X Y Z

Flo Rida - Good Feeling tab

Main Lead First ending

E----------------------------------9-7---|
B-7------------------------------------9-|
G---9-9--9-9-9-9---8-8-9-9---------------|
D----------------------------------------|
A----------------------------------------|
E----------------------------------------|



Main Lead second Ending

E-------------------------------9-7---|
B-7---------------------------------9-|
G--9-9--9-9-9-9-----------------------|
D------------------11-11-9-9----------|
A-------------------------------------|
E-------------------------------------|


Chords:these are the bar chords but you can play the open ones if you cant do bar chords :)
 1st chord C#m   2nd chord E   3rd Chord B   4th Chord A
 --4--           -----         --7--          --5--|
 --5--           --9--         --7--          --5--|
 --6--           --9--         --8--          --6--|
 --6--           --9--         --9--          --7--|
 --4--           --7--         --9--          --7--|
 -----           -----         --7--          --5--|
Tap to rate this tab
# A B C D E F G H I J K L M N O P Q R S T U V W X Y Z