Song name
# A B C D E F G H I J K L M N O P Q R S T U V W X Y Z

Flo Rida - Right Round tab

hey it simple and esey 
please rate

replay it all the song
E/------------------------------------/
B/------------------------------------/
G/------------------------------------/
D/------------------------------------/
A/--------0-0-------------2-2---------/
E/--2-2-2-----0-0-2-2-2-2-----0-0-----/

E/------------------------------------/
B/------------------------------------/
G/------------------------------------/
D/------------------------------------/
A/--------0-0-------------2-2---------/
E/--2-2-2-----0-0-2-2-2-2-----0-0-----/

E/------------------------------------/
B/------------------------------------/
G/------------------------------------/
D/------------------------------------/
A/--------0-0-------------2-2---------/
E/--2-2-2-----0-0-2-2-2-2-----0-0-----/
Tap to rate this tab
# A B C D E F G H I J K L M N O P Q R S T U V W X Y Z