Song name
# A B C D E F G H I J K L M N O P Q R S T U V W X Y Z

Flo Rida - Whistle tab

Hi,
Here are the notes to the addictive whistling melody in "Whistle" by Flo Rida. If you 
like it rate 5 stars.

Enjoy!
-Yair Koas

Steel Guitar

Legend
L - tied note
x - dead note
h - hammer on/pull off
b - bend
s - slide
~ - vibrato
g - ghost note
> - accentuated note
t - trill
M - palm mute
. - staccato
P - popping (bass)
S - slapping (bass)
+ - tapping
W - wide vibrato
< - fade in
w - whammy bar
= - tremolo picking
v - brush up
^ - brush down
V - pick stroke up
n - pick stroke down


"Whistle" by Flo Rida
Tablature/Notation by Yair Koas

E |--5--3--0--3----|--0--0----------|-----0--5--3----|--0--3--0--0----|
B |----------------|--------3--1----|--3-------------|----------------|
G |----------------|----------------|----------------|----------------|
D |----------------|----------------|----------------|----------------|
A |----------------|----------------|----------------|----------------|
E |----------------|----------------|----------------|----------------|


-----------0----||
--3--1--3-------||
----------------||
----------------||
----------------||
----------------||
Tap to rate this tab
# A B C D E F G H I J K L M N O P Q R S T U V W X Y Z