Song name
# A B C D E F G H I J K L M N O P Q R S T U V W X Y Z

Flo Rida - Whistle tab

Hello!.. i know this song has alot of tabs but this one includes the singing part also.. so enjoy!


     Am        F       C        G
E|-------------------------------------|
B|-----1--------1--------1--------0----|
G|-------2--------2--------0--------0--|
D|---2--------3--------2--------0------|
A|-0-----------------3-----------------|
E|----------1-----------------3--------|

^plays trough the chorus

____________________________________________



this is the tab of the whistling part:

E|-4/5--3---3---------------------|
B|--------5---5---4/5--3----3--5--|
G|------------------------5-------|
D|--------------------------------| X2
A|--------------------------------|
E|--------------------------------|


and the tab of the singing part:

E|---------------------------------|
B|-0-0-0-0-1-1-----1-1-----1-1/3-3-|
G|-------------2-0-----2-0---------|
D|---------------------------------| X2
A|---------------------------------|
E|---------------------------------|

E|-----3/5-5-3-3-------------3----------------------------------------|
B|-1-1-----------5-5-3-1-3/5---5--1-0-0-0--1-1-----1-1-------1/3-0-1--|
G|---------------------------------------------2-0-----2-0------------|
D|--------------------------------------------------------------------|
A|--------------------------------------------------------------------|
E|--------------------------------------------------------------------|
                                                             here we go!

that's it.. simple! thank you :D
Tap to rate this tab
 
# A B C D E F G H I J K L M N O P Q R S T U V W X Y Z