Song name
# A B C D E F G H I J K L M N O P Q R S T U V W X Y Z

Flo Rida - Cant Believe It tab

Can't Believe It by Flo Rida and Pitbull
No Capo

Intro:
e|-----------------------------------------------------------------------------|
B|-----------------------------------------------------------------------------|
G|-----------------------------------------------------------------------------|
D|-----------------------------------------------------------------------------|
A|--0-0-2-3-2------------------------------------------------------------------|
E|------------1-1-1-0-0--------------------------------------------------------|


Damn that white girl got some ass

Chorus:
          Am
I can't believe it
F                             Em
White girl got some ass
             Am
I wanna see it
F                      Em
Black girl got a ass
              Am
It ain't a secret
F              Em
Baby turn around
Am                                         F
I wanna see it, tryin' to see it, gotta see it
Em                     Am                       F                 Em
I wanna see that bubble yum bum, baram bam baram
Am                       F                 Em
Bubble yum bum, baram bam baram

Verse 1: [Flo Rida] (Am F Em)
Uh, I think I found one 'cause I got that fever of Britney
Gotta self around one, ass like Serena, that's okay
'cause I love my stereotypes, my girls in twos
That maximum exposure rolls and know what I wanna do,
Telling all the girls, all around the world, my last name must be Robins
'cause I'm basking in these asses, all thirty-one flavours keep calling,
My my my my vanilla Cinderella love it when I tell her drop it,
A butt of pecan recan but I love my chocolate.

Chorus: (Am F Em)
I can't believe it
White girl got some ass
I wanna see it
Black girl got a ass
It ain't a secret
Baby turn around
I wanna see it, tryin' to see it, gotta see it
I wanna see that bubble yum bum, baram bam baram
Bubble yum bum, baram bam baram
Bubble yum bum, baram bam baram
Bubble yum bum, baram bam baram

Verse 2: [Pitbull] (Am F Em)
She got that butt donk-donkie-donkie
They so fat, they so chunky,
Call me Michael Jackson, hi hi
'cause I love to play with monkeys,
This the Miami thing, that's right
We down for anything that's right,
You do everything, that's right
Flo Rida, Pitbull anything,
I'm off the chain and lane lane, lane lane
Ustedes saben quien es quien
Mira salinga con toda esa [?]
Como tu sabes estoy loco.
Pero que bueno que era poco,
Mami mueve los coco,
I don't care where you're from
As long as you got that bubble gum

Chorus: (Am F Em)
I can't believe it (I can't believe it)
White girl got some ass
I wanna see it
Black girl got a ass
It ain't a secret
Baby turn around
I wanna see it, tryin' to see it, gotta see it
I wanna see that bubble yum bum, baram bam baram
Bubble yum bum, baram bam baram
Bubble yum bum, baram bam baram
Bubble yum bum, baram bam baram

Bridge:
e|-----------------------------------------------------------------------------|
B|-----------------------------------------------------------------------------|
G|-----------------------------------------------------------------------------|
D|-----------------------------------------------------------------------------|
A|--0-0-0-0-0------------------------------------------------------------------|
E|-----------------------------------------------------------------------------|(X3)

e|---------------------------------------------------------------------------|
B|---------------------------------------------------------------------------|
G|---------------------------------------------------------------------------|
D|---------------------------------------------------------------------------|
A|---------------------------------------------------------------------------|
E|--1-1-1-0------------------------------------------------------------------|

e|-----------------------------------------------------------------------------|
B|-----------------------------------------------------------------------------|
G|-----------------------------------------------------------------------------|
D|-----------------------------------------------------------------------------|
A|--0-0-0-0-0------------------------------------------------------------------|
E|-----------------------------------------------------------------------------|(X3)

(Pause at end of bridge)

Now turn left, turn right
Turn around you could tell what I like
She look good, she so bad
She kick it up, drop it down, look back.

(Play Intro)
Bubble yum bum, baram bam baram
Bubble yum bum, baram bam baram
Bubble yum bum, baram bam baram
Bubble yum bum, baram bam baram

Outro: (Am F Em)
I can't believe it
White girl got some ass
I wanna see it, baram bam baram.
I can't believe it
White girl got some ass
I wanna see it, baram bam baram.

I can't believe it
White girl got some ass
I wanna see it, baram bam baram.
I can't believe it
White girl got some ass
I wanna see it, baram bam baram.
Tap to rate this tab
# A B C D E F G H I J K L M N O P Q R S T U V W X Y Z