Song name
# A B C D E F G H I J K L M N O P Q R S T U V W X Y Z

Floader - Gils Revenge tab

opening riff                       (3rd and 4th verse)
---------------------------------------------------------------|
---------------------------------------------------------------|
--------(6)-------(6)-----(6)------(6)-------------------------|
-------6-------6-------6-------6-------------------------------|
----44------00-------------------------------------------------|
------------------00-------33----------------------------------|

Chorus

---------------------------------------------------------------|
---------------------------------------------------------------|
---------------------------------------------------------------|
-----2-2-2-2---22222-------------------------------------------|
-----4-4-4-4---------222222----4-4-4-4-------------------------|
-------------------------------2-2-2-2-------------------------|

now go jam with ur homies
Tap to rate this tab
# A B C D E F G H I J K L M N O P Q R S T U V W X Y Z