Song name
# A B C D E F G H I J K L M N O P Q R S T U V W X Y Z

Floater - Endless I tab

-------------------------------------------------------------------------------
			     Endless I
-------------------------------------------------------------------------------
Tabbed by:Shawn Johnson
Email:Shawn12212@Gmail.com

Tuning:Standard

e|----------------------------------------------------------------------------|
B|----------------------------2-------------2--4------------2--4--2-----------|
G|----------------------------------------------------------------------------|
D|-----3--4--3-------3--4--3----4-3----3-4-------4-3---3-4----------4---------|
A|---4---------4---4-----------------4---------------4----------------3-------|
E|----------------------------------------------------------------------------|

e|----------------------------------------------------------------------------|
B|----------------------------2-------------2--4------------2--4--2-----------|
G|----------------------------------------------------------------------------|
D|-----3--4--3-------3--4--3----4-3----3-4-------4-3---3-4----------4---------|
A|---4---------4---4-----------------4---------------4----------------3-------|
E|----------------------------------------------------------------------------|

e|----------------------------------------------------------------------------|
B|----------------------------2-------------2--4------------2--4--2-----------|
G|----------------------------------------------------------------------------|
D|-----3--4--3-------3--4--3----4-3----3-4-------4-3---3-4----------4---------|
A|---4---------4---4-----------------4---------------4----------------3-------|
E|----------------------------------------------------------------------------|

e|----------------------------------------------------------------------------|
B|----------------------------2-------------2--4------------2--4--2-----------|
G|----------------------------------------------------------------------------|
D|-----3--4--3-------3--4--3----4-3----3-4-------4-3---3-4----------4---------|
A|---4---------4---4-----------------4---------------4----------------3-------|
E|----------------------------------------------------------------------------|
These chords Sound fine with the chorus-(And what will the say..)
e|----------------2-22-2-22-2---------------|
B|---3-33-3-33-3--3-33-3-33-3--3-33-3-33-3--|
G|---2-22-2-22-2----------------------------|
D|---4-44-4-44-4--4-44-4-44-4--4-44-4-44-4--|
A|---5-55-5-55-5--5-55-5-55-5--5-55-5-55-5--|
E|---3-33-3-33-3--3-33-3-33-3--3-33-3-33-3--|
Tap to rate this tab
 
# A B C D E F G H I J K L M N O P Q R S T U V W X Y Z