Song name
# A B C D E F G H I J K L M N O P Q R S T U V W X Y Z

Floater - Weightless tab

"Weightless"
by Floater
from the album "Stone By Stone"
tabbed by Cody Davis

Tune down 1/2 step.

Chord formations:
   Bm   Dsus2    A     G    Bm2
e|--2------5-----0-----3-----0----|
B|--3------5-----2-----3-----3----|
G|--4------7-----2-----0-----4----|
D|--4------7-----2-----0-----4----|
A|--2------5-----0-----2-----2----|
E|---------------------3----------|


Intro:
    Bm	        Dsus2	    A	        Bm
e|------2-2-------5-------------0---------2----------0h2----|
B|--3-3-3-3-----5-5-5-5-----2-2-2-2-----3-3-3--------3------|
G|--4-4-4-4--0--7-7-7-7--0--2-2-2-2--0--4-4-4--4-4-4--------|
D|----------------------------------------------------------|
A|----------------------------------------------------------|
E|----------------------------------------------------------|
(light palm muting)

Verse:
    Bm	        Dsus2	    A	        Bm
e|--2-2-2-2-----5-5-5-5-----0-0-0-0-----2-2-2--------0h2----|
B|--3-3-3-3-----5-5-5-5-----2-2-2-2-----3-3-3--------3------|
G|--4-4-4-4-----7-7-7-7-----2-2-2-2-----4-4-4--4-4-4--------|
D|----------------------------------------------------------|
A|----------------------------------------------------------|
E|----------------------------------------------------------|
					    pm------|

Chorus
   G		   A			 Bm2
e|-------3-------------------------------------0-------0-------0------|
B|---------3-------------0---0h2p0---------3-------3-------3-------3--|
G|-----0-------0-------2-----------2---------4-------4-------4-------4|
D|---0---------------2--------------------------------------------------4---|
A|-----------------0---------------------2----------------------------|
E|-3------------------------------------------------------------------|

Solo: (not yet)

Tap to rate this tab
# A B C D E F G H I J K L M N O P Q R S T U V W X Y Z