Song name
# A B C D E F G H I J K L M N O P Q R S T U V W X Y Z

Floater - Accepted tab

"Accepted" by Floater
from the album "Acoustics"

tabbed by dyingmind@yahoo.com
http://www.floatermusic.net


Tune down 1/2 step.


CHORDS:
	Gmaj	G	Am	F	E	C	Dm
e|-------3------3--------0------1-------0-------0-------1-------|
B|-------3------3--------1------1-------0-------1-------3-------|
G|-------0------4--------2------2-------1-------0-------2-------|
D|-------0------5--------2------3-------2-------2-------0-------|
A|-------2------5--------0------3-------2-------3---------------|
E|-------3------3---------------1-------0-----------------------|



Am	   Gmaj			F E		   F G E
I always accepted that you'd be better than all of this
Am		Gmaj	        F E     F G E
I never made promises I couldn't keep
Am		Gmaj		    F E 	     F G E
As you stood before me deciding that I was an open book
AM		    Gmaj			    F E		     F G E
Something made you think you'd read all my dirty little pages

Cover and all


Am		Gmaj		     F E		F G E
Is my apology accepted for all the whiskey that ended up in your face?
Am	   Gmaj			F E     F G E
I never really was much of a diplomat
Am		Gmaj		      F E 		F G E
Now as you lay before me deciding that I am an open book
Am			Gmaj			  F E 		     F G E
One never knows when an unforseen mood could take over and darken my eye


C					 Dm
Oh I could fall on my knees and I could learn to beg
C					     Dm			      C
But I will not repent for nothing No matter what you say or what you said
	   E
I make my own bed

ACCEPTED (SOLO)
As recorded by Floater
(From the 2005 Album ACOUSTICS)

Transcribed by Lucas S.
	

Words by Rob Wynia Music by Rob Wynia, Pete Cornett, Dave Amador

Gtr I (Eb Ab Db Gb Bb Eb) - 'Untitled'

 4/4
  Gtr I
|---------------------------------3-----3-----3-----3S5-------------|
|-------------------------------------------------------------------|
|---4-5-5S7-5-4-4h5-------4h5-4h5---4-5---4-5---4-5------5-5-5-5S7--|
|-7-----------------7-7-7-------------------------------------------|
|-------------------------------------------------------------------|
|-------------------------------------------------------------------|


|-----------------------------------------------------------------------------|
|-----------------------------------------------------------------------------|
|-7-7-7S9-9-9-9----10-10-10-10p9-12p10-10p9-12p10-9S7-2-----------------------|
|-------------------------------------------------------6-7--7-7-7S9-9-9-9S10-|
|-----------------------------------------------------------------------------|
|-----------------------------------------------------------------------------|


|----------------------------------|
|----------------------------------|
|----------------------------------|
|-10-10-10S12-12-12S14-14-14-14----|
|----------------------------------|
|----------------------------------|



Tablature Legend
----------------
h   - hammer-on
p   - pull-off
b   - bend
pb  - pre-bend
r   - bend release (if no number after the r, then release immediately)
/\  - slide into or out of (from/to "nowhere")
s   - legato slide
S   - shift slide
 - natural harmonic
[n]  - artificial harmonic
n(n) - tapped harmonic
~   - vibrato
tr  - trill
T   - tap
TP  - trem. picking
PM  - palm muting
\n/  - tremolo bar dip; n = amount to dip
\n  - tremolo bar down
n/  - tremolo bar up
/n\  - tremolo bar inverted dip
=   - hold bend; also acts as connecting device for hammers/pulls
<> - volume swell (louder/softer)
x   - on rhythm slash represents muted slash
o   - on rhythm slash represents single note slash

Misc Legend
-----------
|  - bar
||  - double bar
||o - repeat start
o|| - repeat end
*|  - double bar (ending)
:  - bar (freetime)
$  - Segno
&  - Coda
Tempo markers -  = BPM(8/16=s8/s16), where s8 = swing 8ths, s16 = swing 16ths




Tap to rate this tab
# A B C D E F G H I J K L M N O P Q R S T U V W X Y Z