Song name
# A B C D E F G H I J K L M N O P Q R S T U V W X Y Z

Floater - Ghost In The Making tab

"Ghost in the Making"
by Floater
from the album "Stone By Stone"
tabbed by Cody Davis

Tune down 1/2 step.

Main riff:
e|---------------------------------|---------------------------------|
B|--12---13---15---12---13---15----|--13---15---16---13---15---16----|
G|-----0----0----0----0----0----0--|-----0----0----0----0----0----0--|
D|---------------------------------|---------------------------------|
A|---------------------------------|---------------------------------|
E|---------------------------------|---------------------------------|

Turns into this:
e|---------------------------|---------------------------|
B|--0---1---3---0---1---3----|--1---3---4---1---3---4----|
G|----0---0---0---0---0---0--|----0---0---0---0---0---0--|
D|---------------------------|---------------------------|
A|---------------------------|---------------------------|
E|---------------------------|---------------------------|

Chorus:
e|--------------------------------------------------------|
B|--------------------------------------------------------|
G|---12---12--------9---9--------10---10--------7--7--7---|
D|---12---12-x-x----9---9-x-x----10---10-x-x----7--7--7---|
A|---10---10-x-x----7---7-x-x-----8----8-x-x----5--5--5---|
E|--------------------------------------------------------|

"You're just a ghost in the making..."
e|-------------------------------------------------------|
B|-------------------------------------------------------|
G|---------------------------------------------5--5--5---|
D|---5------------5-------------5--------------5--5--5---|
A|---5------------5-------------5--------------3--3--3---|
E|---3------------3-------------3------------------------|
   p.m.		p.m.	      p.m.



Tap to rate this tab
# A B C D E F G H I J K L M N O P Q R S T U V W X Y Z