Song name
# A B C D E F G H I J K L M N O P Q R S T U V W X Y Z

Flobots - Stand Up tab

                   Stand Up by the Flobots.

            This was just played by ear and put here because there is currently nothing 
if you have an improvement of this tab please post it


E-----------------------------------|
B-----------------------------------|
G-----------------------------------|
D-----------------------------------|
A-0-------0------0------------------|
E---3-------3------3----------------|


E-----------------------------------|
B-1-0---0----------0--------0-------|
G-----2---2-2--0-2----2-0-2----2--0-|
D-----------------------------------|
A-----------------------------------|
E-----------------------------------|
Tap to rate this tab
# A B C D E F G H I J K L M N O P Q R S T U V W X Y Z