Song name
# A B C D E F G H I J K L M N O P Q R S T U V W X Y Z

Flobots - Handlbars tab

This song is so cool I had to find the chords to play it!
Ok so it's fairly simple it's theses chords through all the song... more or less..

Enjoy

|---------------|--------------|-------------|--------------|--------------|-------|
|--------10-----|--------------|-------------|--------------|-----------11-|-8--11-|
|-7--10------10-|--------9-----|-------7--10-|-----9--12--9-|----7--10-----|-------|
|---------------|-7--10-----10-|----8--------|-10-----------|-8------------|-------|
|---------------|--------------|-8-----------|--------------|--------------|-------|
|---------------|--------------|-------------|--------------|--------------|-------|

---10----|----------8----|-------------|
------11-|-----10-----10-|----8--10----|
---------|-10------------|-9-----------|
---------|---------------|----------7--|
---------|---------------|-------------|
---------|---------------|-------------|


Tabs by Felelep
Tap to rate this tab
# A B C D E F G H I J K L M N O P Q R S T U V W X Y Z