Song name
# A B C D E F G H I J K L M N O P Q R S T U V W X Y Z

Flobots - Handlebars tab

e-1--3--0--1--0-------------------------------------------|
B----------------3----------------------------------------|
G-----------------------2--0------------------------------|
D-----------------------------3--2--0---------------------|
A--------------------------------------3------------------|
E---------------------------------------------------------|

e---------------------------------------------------------|
B-1h3-----1h3---------------------------------------------|
G-----2-------2----0--------------------------------------|
D--------------------3------------------------------------|
A---------------------------------------------------------|
E---------------------------------------------------------|

e-----------------1-5--3-1-0------------------------------|
B-------------1-3------------3-1-----3-2-0-1--------------|
G---------0-2--------------------2-3----------------------|
D-0-3-2-3-------------------------------------------------|
A---------------------------------------------------------|
E---------------------------------------------------------|

e---1-1-1-1-1-----1-3-1-0----1-3-1-0----1-3-1-0-----------|
B-------------------------3----------3----------3---------|
G-2-------------------------------------------------------|
D---------------------------------------------------------|
A---------------------------------------------------------|
E---------------------------------------------------------|

e---1-1-1-1-1----1-3-1-0-----1-3-1-0----------------------|
B-------------------------3------------3------------------|
G-2-------------------------------------------------------|
D---------------------------------------------------------|
A---------------------------------------------------------|
E---------------------------------------------------------|

e-1-3-1-0-------------------------------------------------|
B---------2-----------------------------------------------|
G---------------------------------------------------------|
D---------------------------------------------------------|
A---------------------------------------------------------|
E---------------------------------------------------------|
Tap to rate this tab
# A B C D E F G H I J K L M N O P Q R S T U V W X Y Z