Song name
# A B C D E F G H I J K L M N O P Q R S T U V W X Y Z

Flogging Molly - Swagger tab

-------------------------------------------------------------------------------
			     Swagger (Intro) - Flogging Molly
-------------------------------------------------------------------------------
Tabbed by: Hobosogo
Email: hobosogo@gmail.com

this is my first tab so please tell me if anythings wrong. I noticed nobody played it 
i do so i decided to throw this up. I feel like this way is easier. No sliding up and down 
neck.


e|-------------------------------------------------------------------------------|
B|-------------------------------------------------------------------------------|
G|------------------------------7-7-7-6-4--------7-7-7-6-4----4------------------|
D|---------------------4-7-7----------------7-7----------------7----7-5-4--------|
A|-------4-5-5-5-7------------------------------------------------------------7--|
E|-5-7---------------------------------------------------------------------------|

| /  slide up
| \  slide down
| h  hammer-on
| p  pull-off
| ~  vibrato
| +  harmonic
| x  Mute note
Tap to rate this tab
# A B C D E F G H I J K L M N O P Q R S T U V W X Y Z