Song name
# A B C D E F G H I J K L M N O P Q R S T U V W X Y Z

Flogging Molly - Drunken Lullabies Acoustic tab

-------------------------------------------------------------------------------
			     Drunken Lullabies (intro) - Flogging Molly
-------------------------------------------------------------------------------
Tabbed by: MonkitheHacker
Email: conlindurbin@gmail.com

Tuning: Standard

E|-3------------------------------3------------------------------------------|
A|---2------------2------------2----2----------2-3-2-0-00-2-0----------------|
D|------0--00-2-0------4-2-0-2---------0--00-2-------------------------------|
G|-------------------0-------------------------------------------------------|
B|---------------------------------------------------------------------------|
e|---------------------------------------------------------------------------|

E|-3------------------------------3----------------3-------------------------|
A|---2------------2------------2----2----3-2-0-2-0---------------------------|
D|------0--00-2-0------4-2-0-2---------0-------------------------------------|
G|-------------------0-------------------------------------------------------|
B|---------------------------------------------------------------------------|
e|---------------------------------------------------------------------------|

Tap to rate this tab
# A B C D E F G H I J K L M N O P Q R S T U V W X Y Z