Song name
# A B C D E F G H I J K L M N O P Q R S T U V W X Y Z

Flogging Molly - Dont Shut Em Down tab

I'm pretty sure this is correct, forgive me if it seems confusing, but listen to the song
with it and you should figure it out. also, check out my bass tab for this song
http://tabs.ultimate-guitar.com/f/flogging_molly/dont_shut_em_down_btab.htm

please rate!

Intro:         Intro 2:
e|---------|----------------------------------------------| x2
B|---------|----------------------------------------------|
G|---------|----------------------------------------------|
D|--7-2-4--|--9-9-9-7-4----9-9-9-7-4----9-9-9-7-4---7--2--|
A|--7-2-4--|--9-9-9-7-4----9-9-9-7-4----9-9-9-7-4---7--2--|
E|--5-0-2--|--7-7-7-5-2----7-7-7-5-2----7-7-7-5-2---5--0--|

Verse:
e|---------------------------------------------| x2
B|---------------------------------------------|
G|---------------------------------------------|
D|--9-9-9-9--16-16-16-16--7-7-7-7--14-14-14-14-|
A|--9-9-9-9--16-16-16-16--7-7-7-7--14-14-14-14-|
E|--7-7-7-7--14-14-14-14--5-5-5-5--12-12-12-12-|

e|--------------------------------------------------------------------------|
B|--------------------------------------------------------------------------|
G|--------------------------------------------------------------------------|
D|--9-9-9-9--16-16-16-16--7-7-7-7--14-14-14-14--7-7-7-7--14-14-14-14--16-16-|
A|--9-9-9-9--16-16-16-16--7-7-7-7--14-14-14-14--7-7-7-7--14-14-14-14--16-16-|
E|--7-7-7-7--14-14-14-14--5-5-5-5--12-12-12-12--5-5-5-5--12-12-12-12--14-14-|

e|-------------------|
B|-------------------|
G|-------------------|
D|-16-16-16-16-16-16-|
A|-16-16-16-16-16-16-|
E|-14-14-14-14-14-14-|


Repeat Verse


Chorus:
e|------------------------------------|x2------------|
B|------------------------------------|--------------|
G|------------------------------------|--------------|
D|-9-9-9-9--2-2-2-2--7-7-7-7--9-9-9-9-|---7---9-7----|
A|-9-9-9-9--2-2-2-2--7-7-7-7--9-9-9-9-|---7---9-7----|
E|-7-7-7-7--0-0-0-0--5-5-5-5--7-7-7-7-|---5---7-5----|

Chorus outro
(Chorus outro is the same as Intro 2)

Verse
Chorus
Chorus outro (x2)

Bridge:
e|---------------------|
B|---------------------|
G|-4-----4-----4-----3-|
D|-4--4--4--4--4--4--3-|
A|-2--4--2--4--2--4--1-|
E|----2-----2-----2----|

Verse (only second half is played, first half is bass)
Chorus
Chorus
Chorus outro (x3)

Outro
e|------------------------------------------------------|x2
B|------------------------------------------------------|
G|------------------------------------------------------|
D|-5-5-5-5-5-5-5-5-5-5-5-5-5-5-5-5-5-5-5-5-5-5-5-5-7-2--|
A|-5-5-5-5-5-5-5-5-5-5-5-5-5-5-5-5-5-5-5-5-5-5-5-5-7-2--|
E|-7-7-7-7-7-7-7-7-7-7-7-7-7-7-7-7-7-7-7-7-7-7-7-7-5-0--|
Tap to rate this tab
# A B C D E F G H I J K L M N O P Q R S T U V W X Y Z