Song name
# A B C D E F G H I J K L M N O P Q R S T U V W X Y Z

Floorpunch - Let It Ride tab

Floorpunch Let It Ride
Standard Tuning

Intro
Gtr 1
E|-----------------------------------|
A|-----------------------------------|
D|-----------------------------------|
G|-----------------------------------|
B|10-10-10-8-8-8-10-10-10-8-8-8--13--|-Let Ring
E| 8--8--8-6-6-6--8--8--8-6-6-6--11--|-Let Ring

Part 1
Both Guitars
E|-------------------------------------------| }
A|-------------------------------------------| }
D|-------------------------------------------| }
G|-------------------------------------------| }\
B|10-10-10-8-8-8-10-10-10-8-8-8-13-13-13-13--| } \
E| 8--8--8-6-6-6--8--8--8-6-6-6-11-11-11-11--| }  \
                                               } x2
E|-------------------------------------------| }  /
A|-------------------------------------------| } /
D|-------------------------------------------| }/
G|-------------------------------------------| }
B|10-10-10-8-8-8-10-10-10-8-8-8-15-15-15-15--| }
E| 8--8--8-6-6-6--8--8--8-6-6-6-13-13-13-13--| }

Part 2
Both Guitars
E|-------------------------------------- }
A|-------------------------------------- }
D|-------------------------------------- }\
G|-------------------------------------- } x2
B|10~-------8-8-8-8-10~-------8-8-13-13- }/
E| 8~-------6-6-6-6--8~-------6-6-11-11- }

Play Part 1 Again

Part 2 changed
Gtr 1
E|-----------------------------------------------------------------------|
A|-----------------------------------------------------------------------|
D|--------------------------------------------------8-8-8-10-10-10-12-12-|
G|-----------------------------------------------------------------------|
B|10~-----------10~-----------10~-----------10~-----6-6-6--8--8--8-10-10-|
E| 8~------------8~------------8~------------8~--------------------------|
Gtr 2
E|----------------------------------------------------------------------|
A|----------------------------------------------------------------------|
D|----------------------------------------------------------------------|
G|----------------------------------------------------------------------|
B|10~-----------10~-----------10~-----------10~-------------------------|
E| 8~------------8~------------8~------------8~-------------------------|

Play Part 1 Again


Finish
Both Guitars
E|--------------|
A|--------------|
D|--------------|
G|--------------|
B|10~~----------|
A| 8~~----------|

Shove in pick scrapes when you hear them. Any suggestions email me on x.sam.x@retardsrule.com. Enjoy!
This band broke up in 1999 so it's hard to get tabs, the closest thing to an offical website
is this - www.myspace.com/floorpunchjerseyshore
Tap to rate this tab
# A B C D E F G H I J K L M N O P Q R S T U V W X Y Z