Song name
# A B C D E F G H I J K L M N O P Q R S T U V W X Y Z

Florante - Akoy Isang Pinoy tab

v
   Ako'y isang Pinoy   |    sa puso't diwa 
e|---------------------|-------------------------|
B|---------------------|-------------------------|
G|--0--0--0--4--5--7---|-------7--9--5--9--7-----|
D|---------------------|-------------------------|
A|---------------------|-------------------------|
E|---------------------|-------------------------|

    Pinoy na | isinilang  |    sa ating bansa    
e|-----------|------------|----------------------|
B|-----------|---------0--|----------------------|
G|--7--9--5--|-7--9--7----|----4--5--4--2--0-----|
D|-----------|------------|----------------------|
A|-----------|------------|----------------------|
E|-----------|------------|----------------------|


    Ako'y hindi sanay    |  sa wikang mga banyaga
e|-----------------------|-----------------------|
B|-----------------------|-------------------0---|
G|--0--0--0--4--5--7-----|----7--9--5--9--7------|
D|-----------------------|-----------------------|
A|-----------------------|-----------------------|
E|-----------------------|-----------------------|

   Ako'y Pinoy | na mayroong |   sariling wika.
e|-------------|-------------|-------------------|
B|-------------|----------0--|-------------------|
G|--7--9--7--5-|-7--9--7-----|---4--5--4--2--0---|
D|-------------|-------------|-------------------|
A|-------------|-------------|-------------------|
E|-------------|-------------|-------------------|

Chorus:

   Wikang pambansa  |   ang gamit kong | salita
e|------------------|------------------|---------|
B|------------------|------------------|---------|
G|--9--9--7--5--7---|------5--5--4-----|-2--4----|
D|------------------|------------------|---------|
A|------------------|------------------|---------|
E|------------------|------------------|---------|

      Bayan kong     |       sinilangan
e|-------------------|---------------------------|
B|-------------------|---------------------------|
G|-----9--9--9-------|------11--12--7--5-4-------|
D|-------------------|---------------------------|
A|-------------------|---------------------------|
E|-------------------|---------------------------|

   Hangad kong | lagi |     ang kalayaan.
e|-------------|------|--------------------------|
B|-------------|------|--------------------------|
G|---4--5--5---|-7--9-|----4--5--4--2--0---------|
D|-------------|------|--------------------------|
A|-------------|------|--------------------------|
E|-------------|------|--------------------------|


V


    Si Gat Jose Rizal  |       nuo'y nagwika
e|---------------------|-------------------------|
B|---------------------|-------------------------|
G|--0--0--0--4--5--7---|-------7--9--5--9--7-----|
D|---------------------|-------------------------|
A|---------------------|-------------------------|
E|---------------------|-------------------------|

  Siya ay nag|   pangaral | sa ating bansa   
e|-----------|------------|-----------------------|
B|-----------|------------|-----------------------|
G|-7--9--5---|-7--9--5----|-----4--5--4--2--0-----|
D|-----------|------------|-----------------------|
A|-----------|------------|-----------------------|
E|-----------|------------|-----------------------|


   Ang hindi raw magmahal| sa sariling wika
e|-----------------------|-----------------------|
B|-----------------------|-----------------------|
G|--0--0--0--4--5--7-----|----7--9--5--9--7------|
D|-----------------------|-----------------------|
A|-----------------------|-----------------------|
E|-----------------------|-----------------------|

   Ay higit pa | ang amoy sa | mabahong isda.
e|-------------|-------------|-------------------|
B|-------------|----------0--|-------------------|
G|--7--9--7--5-|-7--9--7-----|---4--5--4--2--0---|
D|-------------|-------------|-------------------|
A|-------------|-------------|-------------------|
E|-------------|-------------|-------------------|
Tap to rate this tab
# A B C D E F G H I J K L M N O P Q R S T U V W X Y Z