Florence And The Machine - My Boy Builds Coffins tab

Tab by: Isa

Okay, so these are the chords you are going to use throughout the whole song: C Am Em.
the capo on 4th fret! The plucking is pretty easy to figure out on your own if you just
to the song itself. These aren't the exact, original tabs, but just what I think sounds 
So here goes:

e|-----------------------------|
B|----------1-------1----------|
G|----------0------------------|
D|-------2--------2------------|
A|----3---------3--------------|
E|-----------------------------|

e|-----------------------------|
B|----------1-------1----------|
G|----------2------------------|
D|-------2--------2------------|
A|----0---------0--------------|
E|-----------------------------|

e|------------------------------------|
B|-------0-------0----------0-------0-|
G|-------0------------------0---------|
D|----2--------2---------2-------2----|
A|-2---------2--------2--------2------|
E|------------------------------------|

To sum it up, you just play the chords written above and pluck these same strings at
chord, through the whole song. I haven't really listened after any differences in the song,
this should basically be it. Hope you get it! :)
Tap to rate this tab
 
# A B C D E F G H I J K L M N O P Q R S T U V W X Y Z