Florence And The Machine - Kiss With A Fist tab

-------------------------------------------------------------------------------
		   Kiss with a Fist - Florence and the Machine
-------------------------------------------------------------------------------
Tabbed by: jackofspades500
Email: lomalamb2@gmail.com

Tuning: Standard - E A D G B E

Verse 1 & 2:

e|-------------------------------------------------|
B|-------------------------------------------------|
G|-----------------7-7-7-7---------9-9-7-7---------|
D|-7-7-7-7-7-7-7-7-7-7-7-7-7-7-7-7-9-9-7-7-7-7-7-7-| x2
A|-7-7-7-7-7-7-7-7-5-5-5-5-7-7-7-7-7-7-5-5-7-7-7-7-|
E|-5-5-5-5-5-5-5-5---------5-5-5-5---------5-5-5-5-|


Pre-chorus 1:

e|----------------------------|
B|----------------------------|
G|----------------------------|
D|-7-7-7-7-7------------------|
A|-7-7-7-7-7------------------|
E|-5-5-5-5-5------------------|


Chorus:

e|-----------------------------------|
B|-----------------------------------|
G|-7-7-7-7---------9-9-7-7-------99--|
D|-7-7-7-7-7-7-7-7-9-9-7-7-7-7-7-99--|
A|-5-5-5-5-7-7-7-7-7-7-5-5-7-7-7-77--|
E|---------5-5-5-5---------5-5-5-----|


Verse 3:

e|-------------------------------------------------|
B|-------------------------------------------------|
G|-----------------7-----7---------9---7-----------|
D|-7-----7-7-----7-7-----7-7-------9---7---7-------|
A|-7-----7-7-----7-5-----5-7-------7---5---7-------|
E|-5-----5-5-----5---------5---------------5-------|


Pre-chorus 2:

e|----------------------------|
B|----------------------------|
G|----------------------------|
D|-7-------7------------------|
A|-7-------7------------------|
E|-5-------5------------------|


Repeat Chorus

Repeat Verse 1

Solo (tremolo picking):

e|-------------------------------------------------------------------------|
B|-------------------------------------------------------------------------|
G|-----------------------------------------9-9-9-9-9-9-9-9-9-9-9-9---------|
D|-5/7-7-7-7-5/7-7-7-7-5/7-7-7-7-5/7-7-7-7-------------------------7-7-7-7-|
A|-------------------------------------------------------------------------|
E|-------------------------------------------------------------------------|


Final Verse:

e|----------------------------------------------------|
B|----------------------------------------------------|
G|-----------------7-7-7-7---------9-9-7-7------------|
D|-7-7-7-7-7-7-7-7-7-7-7-7-7-7-7-7-9-9-7-7-7-7-7-7~---|
A|-7-7-7-7-7-7-7-7-5-5-5-5-7-7-7-7-7-7-5-5-7-7-7-7~---|
E|-5-5-5-5-5-5-5-5---------5-5-5-5---------5-5-5-5~---|

**************
    Lyrics:
**************

Verse 1:
You hit me once, I hit you back
You gave a kick, I gave a slap
You smashed a plate over my head
Then I set fire to our bed

Verse 2:
My black eye casts no shadow
Your red eye sees no blame
Your slaps don't stick, your kicks don't hit
So we remain the same

Chorus:
Blood sticks, sweat drips
Break the lock if it don't fit
A kick in the teeth is good for some
A kiss with a fist is better than none
Wo-oah
A kiss with a fist is better than none

Verse 3:
I broke your jaw once before
I spilled your blood upon the floor
You broke my leg in return
So let's sit back and watch the bed burn


The song is short, sweet, repetitive and both easy and fun to play.
I've written in the tab what is repeated when but I haven't in the 
lyrics. Just listen to the song to hear what lyrics come when.
Listen to the song also for timing of changes as well as strumming
patterns.
Enjoy.
Tap to rate this tab
 
# A B C D E F G H I J K L M N O P Q R S T U V W X Y Z