Song name
# A B C D E F G H I J K L M N O P Q R S T U V W X Y Z

Florence And The Machine - My Boy Builds Coffins tab

-----------------------------------------------------------------------------
           My Boy Builds Coffins - Florence And The Machine
-----------------------------------------------------------------------------
Tabbed by: Duuuude
Email: josefkvarnstrom@hotmail.com

Capo on the 5th fret
Tuning: Standard

This is my first tab, please send me a mail if you want to complain or give me advice!

Intro
      c             am           em      
e|-----------------------------------------------------------------------|
B|---------1-------------1------------0-------------0--------------------|
G|-----------0-------------2------------0-------------0------------------|
D|-------2------0h2----2-----0h2----2-----0h2-----2-----0h2--------------|
A|----3--------------0------------2-----------0h2------------------------|
E|-----------------------------------------------------------------------|

       c             am           em      
e|-----------------------------------------------------------------------|
B|---------1-------------1-----------------------------------------------|
G|-----------0-------------2---------------------------------------------|
D|-------2------0h2----2-----0h2-----------------------------------------|
A|----3--------------0------------2--------------------------------------|
E|--------------------------------0--------------------------------------|

Vers
       c               am
e|-----------------------------------------------------------------------|
B|------------1---------------1------------------------------------------|
G|----------0---0---0-------2---2---0------------------------------------|
D|--------2-------2-------2-------2--------------------------------------|x4
A|-----3---------------0-------------------------------------------------|
E|-----------------------------------------------------------------------|

      c             am           em      
e|-----------------------------------------------------------------------|
B|---------1-------------1------------0-------------0--------------------|
G|-----------0-------------2------------0-------------0------------------|
D|-------2------0h2----2-----0h2----2-----0h2-----2-----0h2--------------|x4
A|----3--------------0------------2-----------0h2------------------------|
E|-----------------------------------------------------------------------|

Refr
      c            am            em
e|----0------------0-----------------------------------------------------|
B|----1------------1-------------0---------------------------------------|
G|----0------------2-------------0---------------------------------------|
D|----2------------2-------------2---------------------------------------|
A|----3------------0-------------2---------------------------------------|
E|-------------------------------0---------------------------------------|

      c                          em
e|----0------------------------------------------------------------------|
B|----1--------------------------0---------------------------------------|
G|----0--------------------------0---------------------------------------|
D|----2--------------------------2---------------------------------------|
A|----3--------------------------2---------------------------------------|
E|-------------------------------0---------------------------------------|

      c            am            em
e|----0------------0-----------------------------------------------------|
B|----1------------1-------------0---------------------------------------|
G|----0------------2-------------0---------------------------------------|
D|----2------------2-------------2---------------------------------------|
A|----3------------0-------------2---------------------------------------|
E|-------------------------------0---------------------------------------|

      c                          em
e|----0------------------------------------------------------------------|
B|----1--------------------------0---------------------------------------|
G|----0--------------------------0---------------------------------------|
D|----2--------------------------2---------------------------------------|
A|----3--------------------------2---------------------------------------|
E|-------------------------------0---------------------------------------|

      c                          em
e|----0------------------------------------------------------------------|
B|----1--------------------------0---------------------------------------|
G|----0--------------------------0---------------------------------------|
D|----2--------------------------2---------------------------------------|
A|----3--------------------------2---------------------------------------|
E|-------------------------------0---------------------------------------|

      c            am            em
e|----0------------0-----------------------------------------------------|
B|----1------------1-------------0---------------------------------------|
G|----0------------2-------------0---------------------------------------|
D|----2------------2-------------2---------------------------------------|
A|----3------------0-------------2---------------------------------------|
E|-------------------------------0---------------------------------------|

      c                          em
e|----0------------------------------------------------------------------|
B|----1--------------------------0---------------------------------------|
G|----0--------------------------0---------------------------------------|
D|----2--------------------------2---------------------------------------|
A|----3--------------------------2---------------------------------------|
E|-------------------------------0---------------------------------------|

      c            am            em
e|----0------------0-----------------------------------------------------|
B|----1------------1-------------0---------------------------------------|
G|----0------------2-------------0---------------------------------------|
D|----2------------2-------------2---------------------------------------|
A|----3------------0-------------2---------------------------------------|
E|-------------------------------0---------------------------------------|

      c             am           em      
e|-----------------------------------------------------------------------|
B|---------1-------------1------------0-------------0--------------------|
G|-----------0-------------2------------0-------------0------------------|
D|-------2------0h2----2-----0h2----2-----0h2-----2-----0h2--------------|x12
A|----3--------------0------------2-----------0h2------------------------|
E|-----------------------------------------------------------------------|

For you...
      c                          em
e|----0------------------------------------------------------------------|
B|----1--------------------------0---------------------------------------|
G|----0--------------------------0---------------------------------------|
D|----2--------------------------2---------------------------------------|
A|----3--------------------------2---------------------------------------|
E|-------------------------------0---------------------------------------|

      c            am            em
e|----0------------0-----------------------------------------------------|
B|----1------------1-------------0---------------------------------------|
G|----0------------2-------------0---------------------------------------|
D|----2------------2-------------2---------------------------------------|
A|----3------------0-------------2---------------------------------------|
E|-------------------------------0---------------------------------------|

      c                          em
e|----0------------------------------------------------------------------|
B|----1--------------------------0---------------------------------------|
G|----0--------------------------0---------------------------------------|
D|----2--------------------------2---------------------------------------|
A|----3--------------------------2---------------------------------------|
E|-------------------------------0---------------------------------------|

      c                          em
e|----0------------------------------------------------------------------|
B|----1--------------------------0---------------------------------------|
G|----0--------------------------0---------------------------------------|
D|----2--------------------------2---------------------------------------|
A|----3--------------------------2---------------------------------------|
E|-------------------------------0---------------------------------------|
Tap to rate this tab
# A B C D E F G H I J K L M N O P Q R S T U V W X Y Z