Song name
# A B C D E F G H I J K L M N O P Q R S T U V W X Y Z

Florence And The Machine - My Boy Builds Coffins tab

-------------------------------------------------------------------------------
                           Florence And The Machin - My Boy Builds Coffins
-------------------------------------------------------------------------------
Tabbed by: Hipsh

Tuning: Standard E A D G B E

Capo 5


The intro goes C - Am - Em, with a slight variation on every second repetition on the Am.
can be played the whole song through on acoustic

e|-------------------------------------------------------|
B|-1---1---------1---1---------0---0---------------0-----|
G|---------0-------------2-------------0-------------0---|
D|---2-------2-----2-------2-----2-------2---0h2-------2-|
A|-3-----3-------0-----0-------2-----2-----------2-------|
E|-------------------------------------------------------|


e|---------------0---------------------------------------|
B|-1---1-------------1---------0---0---------------0-----|
G|---------0-------------2-------------0-------------0---|
D|---2-------2-----2-------2-----2-------2---0h2-------2-|
A|-3-----3-------0-----0-------2-----2-----------2-------|
E|-------------------------------------------------------|


************************************
| h   hammer-on
************************************
Tap to rate this tab
 
# A B C D E F G H I J K L M N O P Q R S T U V W X Y Z