Song name
# A B C D E F G H I J K L M N O P Q R S T U V W X Y Z

Floricienta - Un Enorme Dragon tab

E|--------------------------------------------------------|
B|--------------------------------------------------------|
G|------4h6---4----6s8--6----6s8--------------------------|
D|--4h6-------------------------4s6-----------------------|
A|--------------------------------------------------------|
E|--------------------------------------------------------|

E|--------------------------------------------------------|
B|-------------------------------------5s7----------------|
G|----3p2p0-------------0----2-3-------6s8----6-----------|
D|--------3h0--0h3---------------3------------------------|
A|--------------------------------------------------------|
E|--------------------------------------------------------|
Tap to rate this tab
# A B C D E F G H I J K L M N O P Q R S T U V W X Y Z