Song name
# A B C D E F G H I J K L M N O P Q R S T U V W X Y Z

Florida Georgia Line - Round Here tab

Florida Georgia Line  "'Round Here"

(intro)
e|-----------------------------------------2-----------------------------------------|
B|----------------------------------3---s5---5-3-----------------------------------3-|
G|-4-4-2-4-2-2---4-4-2-2--4-4-2-4-2--------------4-2-4-4-2-4-2-2--4-4-2--4-4-2-4-2---|
D|-----------------------------------------------------------------------------------|
A|-----------------------------------------------------------------------------------|
D|-----------------------------------------------------------------------------------|


(verse)
Bm          D 
Hammeriní a nail
G             D 
Stackiní them bales
    Bm               D
Iím dog tired by the 5 oíclock hour
        G                   D
But Iím ready to raise some hell
    Bm                    D 
And Jesseís gettiní ready
    G                    D
Iím gassiní up the Chevy
          Bm
Iím gonna pick her up at 6
  D                         G
I hope sheís gonna wear the jeans with a tear 
         D
That her mama never fixed



(chorus)
    G                     D
The moon comes up and the sun goes down 
   G                         D 
We find a little spot on the edge of town 
G                        D
Twist off, sip a little, pass it around
Em                          D
Dance in the dust, turn the radio up
Bm                 D
  And that fireball whiskey whispers 
G          D    
  Temptation in my ear
       G               D
Itís a feeliní alright Saturday night 
    G                          D 
And thatís how we do it íround here 
     Bm                         D
Yeah thatís how we do it íround here

(instrumental)
e|-s2--------------------------------------------|
B|----5-3------------------------------------3---|
G|--------4-2--4-4-2-4-2-2--4-4-2--4-4-2-4-2-----|
D|-----------------------------------------------|
A|-----------------------------------------------|
D|-----------------------------------------------|


(verse)
Bm              D
Mud on the grips
     G                 D 
Wild cherry on her lips
          Bm                     D
Iíve been workiní and tryiní and flirtin and dyiní 
           G           D
For an all night kinda kiss
Bm                     D
And country on the boombox
G                      D 
And candles on the toolbox
      Bm
Doiní everything right
        D
Got the country boy charm
       G              D         
Turned all the way on tonight



(chorus)
    G                     D
The moon comes up and the sun goes down 
   G                         D 
We find a little spot on the edge of town 
G                        D
Twist off, sip a little, pass it around
Em                          D
Dance in the dust, turn the radio up
Bm                   D
  And that fireball whiskey whispers 
G            D    
  Temptation in my ear
       G               D
Itís a feeliní alright Saturday night 
    G                          D 
And thatís how we do it íround here 
     Bm                         D
Yeah thatís how we do it íround here

(instrumental)
e|--------------------------------------------------|
B|--------------------------------------------------|
G|---2-4--4-4-4-------------------------------------|
D|-4------------b3-b3-b3-b3r-2----------------------|
A|-----------------------------5-2-0-2-2br-0--------|
D|-------------------------------------------2~-0---|

e|------------------------------------------7-----------10-----------------10-|
B|-------------------------3---3-s7-10-7-10----------------8br----------10-10-|
G|--------------------2-h4---4----------------9-7---10b--------11-9-s11----11-|
D|---------------2-h4----------------------------9----------------------------|
A|--------0-h2-5--------------------------------------------------------------|
D|-0-h2-4---------------------------------------------------------------------|


(chorus-out)
(no chord)
The moon comes up and the sun goes down 

We find a little spot on the edge of town 

Twist off, sip a little, pass it around

Dance in the dust, turn the radio up
Bm                  D
  And that fireball whiskey whispers 
G            D    
  Temptation in my ear
       G               D
Itís a feeliní alright Saturday night 
    G                          D 
And thatís how we do it íround here 
     Bm                         D
Yeah thatís how we do it íround here


e|----2---------------------------------------------2----------------------------|
B|-s5---5-3-----------------------------------3--s5---5-3------------------------|
G|----------4-2-4-4-2-4-2-2--4-4-2--4-4-2-4-2-------------4-2-4-4-2-4-2-2--4-4-2-|
D|-------------------------------------------------------------------------------|
A|-------------------------------------------------------------------------------|
D|-------------------------------------------------------------------------------|
                                     Yeah thatís how we do it íround here

e|------------------------2---------------------|
B|------------------3--s5---5-3---------------3-|
G|-4-4-2--4-4-2-4-2-------------4-2-4-4-2-4-2---|
D|----------------------------------------------|
A|----------------------------------------------|
D|----------------------------------------------|
Yeah thatís how we do it íround here
Tap to rate this tab
 
# A B C D E F G H I J K L M N O P Q R S T U V W X Y Z