Song name
# A B C D E F G H I J K L M N O P Q R S T U V W X Y Z

Flotation Toy Warning - Donald Pleasance tab

Highlighted       Show chord diagrams
-------------------------------------------------------------------------------
                   DONALD PLEASANCE - Flotation Toy Warning
-------------------------------------------------------------------------------

Tabbed by: Barney Gale
Email: barney.gale@gmail.com

Tuning: Standard (EADGBE)

---

Bm D x4
D Bm A G x2

D                      Bm                  A      G
   Came to say how you feel today, how you feel inside
D                             Bm                          A                     G
   You can't tell me that you know how it feels, when you don't seem to feel at all
D                         Bm      A                   G        
   You came here today to tell me this, you think I'm stupid?
D                             Bm                A               G
   This is the funeral of our love, I came here only to say goodbye
   

D  Bm A  G
D  Bm
Em D  Em A x3
D  A  Bm A  G  A


         D           A        Bm               A      G    A
e|----------------------------------------------------------------|
B|----------------------------------------------------------------|
G|-11/12-14----------14-------------------------------------12-11-|
D|----------12-12-14----11-9-------------11-12--------12----------|
A|---------------------------12-12/14----------9-9-10----12-------|
E|------------------------------------12--------------------------|


D
   Leonard stop the trains
A
   By any certain means
Bm                   A
   I couldn't bear to board another
G
She not me was the dealer
       A   
With a tiny useless fucking shelter
D
   David pass me the wine
A
   Like you I'm "really not fine"
Bm                       A
   Did I really mean her harm?
  G         A
I never set foot in the country


D  A  Bm A  G  A


D                     A                       Bm
   Donald tell me why pleasance never gets me anywhere, anymore
        A
Was the lovely man from Mars?
  G           A        D  A  Bm A  G  A   
I never liked Venus at all


      D
This brittle house our love has stained
     A
I've left before and I'll leave again
    Bm                             A
But your little blue moods drag me in
      G                 A
But I know you won't be bringing me down this
D
Growing pains and empty days
A                                    Bm                      A
Records played and certain shades of blue remind me still of you
      G                 A
But I know you won't be bringing me down this time


         D           A        Bm               A      G    A
e|----------------------------------------------------------------|
B|----------------------------------------------------------------|
G|-11/12-14----------14-------------------------------------12-11-|
D|----------12-12-14----11-9-------------11-12--------12----------|
A|---------------------------12-12/14----------9-9-10----12-------|
E|------------------------------------12--------------------------|


D  A  Bm A  G  A x2
D  Bm A  G x3


D                             Bm                          A                     G
   You can't tell me that you know how it feels, when you don't seem to feel at all
D                             Bm                A           G
   This is the funeral of our love. I came here only to say goodbye
D                             Bm                A           G
   This is the funeral of our love. I came here only to say goodbye
D                             Bm                A           G
   This is the funeral of our love. I came here only to say goodbye
Tap to rate this tab
 
# A B C D E F G H I J K L M N O P Q R S T U V W X Y Z