Song name
# A B C D E F G H I J K L M N O P Q R S T U V W X Y Z

Flow - Who Needs Baby tab

Flow - Who Needs Baby
Tabbed out By Jay The Punk
Standard Tuning

Intro/Pre-verses
E|------------------------------------------|
B|------------------------------------------|
G|--7-7-7-7----------------------------7----|
D|--7-7-7-7--7-7-7-7--5-5-5-5--7-7-7-7-7----|x4
A|--5-5-5-5--7-7-7-7--5-5-5-5--7-7-7-7-5----|
E|-----------5-5-5-5--3-3-3-3--5-5-5-5------|
 Play only and let ring on the 4th time^

Verses
E|--5-5-5-5--5-5-5-5--3-3-3-3--5-5-5-5-----------|
B|--7-7-7-7--5-5-5-5--3-3-3-3--5-5-5-5-----------|
G|--7-7-7-7--6-6-6-6--4-4-4-4--6-6-6-6-----------|
D|--7-7-7-7--7-7-7-7--5-5-5-5--7-7-7-7-----------|x4
A|-----------------------------------------------|
E|-----------------------------------------------|

Pre-Choruses
E|-----------------------------------------------|
B|-----------------------------------------------|
G|-----------------------------------------------|
D|-5-3-3--5-3-3--5-3-3-7-7-7-7-------------------|
A|-5-3-3--5-3-3--5-3-3-7-7-7-7-------------------|
E|-3-1-1--3-1-1--3-1-1-5-5-5-5-------------------|

Choruses
E|-----------------------------------------------|
B|-----------------------------------------------|
G|--7-7-7-7--------------------------------------|
D|--7-7-7-7-7-7-7-7-9-9-9-9-5-5-5-5--------------|x4
A|--5-5-5-5-7-7-7-7-9-9-9-9-5-5-5-5--------------|
E|----------5-5-5-5-7-7-7-7-3-3-3-3--------------|

Bridge
E|--5-5--5-5--5-5--5-5--3-3--5-5--3-3--5-5-------|
B|--7-7--5-5--7-7--5-5--3-3--5-5--3-3--5-5-------|
G|--7-7--6-6--7-7--6-6--4-4--6-6--4-4--6-6-------|x4 Slow then x2 fast
D|--7-7--7-7--7-7--7-7--5-5--7-7--5-5--7-7-------|
A|-----------------------------------------------|
E|-----------------------------------------------|

Outro                              End 
E|----------------------------|  |-------------------|
B|----------------------------|  |-------------------|
G|--7-7-7-7-------------------|  |--7-7--------------|
D|--7-7-7-7--7-7-7-7--5-5-5-5-|x3|--7-7--------------|
A|--5-5-5-5--7-7-7-7--5-5-5-5-|  |--5-5--------------|
E|-----------5-5-5-5--3-3-3-3-|  |-------------------|

Add mutes where appropriate i couldn't get the lead down for this.


Tap to rate this tab
 
# A B C D E F G H I J K L M N O P Q R S T U V W X Y Z