Song name
# A B C D E F G H I J K L M N O P Q R S T U V W X Y Z

Flow - Life Is Beautiful tab

			     Life is Beautiful - Flow
-------------------------------------------------------------------------------
Tabbed by: Zeerion
Email: remintz822@comcast.net

Tuning: Standard

This song is fairly easy & shouldn't be too much trouble. 
Any comments or suggestions please email me or post in comments section. 

   Verse 1 after bass        2 times
e|-------|---------------------------------------|---------------------------|
B|-------|---------------------------------------|---------------------------|
G|-------|--------------------7-7-7-7-7-7-7-7-7--|---------------------------|
D|-12\5--|-5-5-5-5-5-5-5-5-5--7-7-7-7-7-7-7-7-7--|-7----5----7----5----5-5---|
A|-12\5--|-5-5-5-5-5-5-5-5-5--5-5-5-5-5-5-5-5-5--|-7----5----7----5----5-5---|
E|-10\3--|-3-3-3-3-3-3-3-3-3---------------------|-5----3----5----3----3-3---|

   Chorus (get your trigger finger ready lol)
e|---------------------------------------------------------------------------|
B|---------------------------------------------------------------------------|
G|-7777777777777777------------------4444444444444444------------------------|
D|-7777777777777777-5555555555555555-4444444444444444-55555555-77777777------|
A|-5555555555555555-5555555555555555-2222222222222222-55555555-77777777------|
E|------------------3333333333333333------------------33333333-55555555------|
   (16 times)
    I do all down strokes, but you can alternate if you want (8 times each) 

                                          
e|-----------------------------------|---------------------|-----------------|
B|-----------------------------------|---------------------|-----------------|
G|-7777777777777777------------------|---------------------|-----------------|
D|-7777777777777777-5555555555555555-|-9-9--7-7--5-5555555-|-9-9--7-7--5-----|
A|-5555555555555555-5555555555555555-|-9-9--7-7--5-5555555-|-9-9--7-7--5-----|
E|------------------3333333333333333-|-7-7--5-5--3-3333333-|-7-7--5-5--3-----|

   Solo 1 
e|--------------------------------------------------------------------------9-10|
B|-/10~----10-8-7--------------------------------------------------------10-----|
G|-----------------9--11-11--11-12-11-9-7-7-6-7~----6-7-7-9-9-11-9-11-12--------|
D|------------------------------------------------------------------------------|
A|------------------------------------------------------------------------------|
E|------------------------------------------------------------------------------|
   Verse 2
e|-------------------------------------|-------------------------------------|
B|-------------------------------------|-------------------------------------|
G|----------------------------77777777-|----------------------------7--------|
D|-55555555-44444444-77777777-77777777-|-55555555-44444444-77777777-7--------|
A|-55555555-44444444-77777777-55555555-|-55555555-44444444-77777777-5--------|
E|-33333333-22222222-55555555----------|-33333333-22222222-55555555----------|
  pm ..............................................................

        2 times
e|--------------------------------------|------------------------------------|
B|--------------------------------------|------------------------------------|
G|--------------------7-7-7-7-7-7-7-7-7-|------------------------------------|
D|-5-5-5-5-5-5-5-5-5--7-7-7-7-7-7-7-7-7-|-7----5----7----5----5-5------------|
A|-5-5-5-5-5-5-5-5-5--5-5-5-5-5-5-5-5-5-|-7----5----7----5----5-5------------|
E|-3-3-3-3-3-3-3-3-3--------------------|-5----3----5----3----3-3------------|

Chorus

   Solo 2 (best one)
e|----------------------------------------------------------9--10--9---10-9-10-----|
B|--/10~-----10-8-7-8-7h8p7---------------------------10-10--10--10-10-------------|
G|--------------------------7-9-7---11-12-11-12-11-12------------------------------|
D|---------------------------------------------------------------------------------|
A|---------------------------------------------------------------------------------|
E|---------------------------------------------------------------------------------|

e|-12-14-15-14-12-14-12h14p12------------------------------------------------------|
B|----------------------------14-15-15-14-15-15b17r15-14-15-15-14-15-15b17r15-14---|
G|---------------------------------------------------------------------------------|
D|---------------------------------------------------------------------------------|
A|---------------------------------------------------------------------------------|
E|---------------------------------------------------------------------------------|

e|-15-15-14-14-12-12-----------------------------15-15-14-14-12-12-----------------|
B|-------------------14-15-15-14-15-15b17r15-14--------------------14-15-15-14-15--|
G|---------------------------------------------------------------------------------|
D|---------------------------------------------------------------------------------|
A|---------------------------------------------------------------------------------|
E|---------------------------------------------------------------------------------|

e|-12-14--------------------12-14-14--12----------12-12---12-----------12-12-12-12-|
B|--------15-15-14-14-15-15---------------14--15-------------15-14-15--------------|
G|---------------------------------------------------------------------------------|
D|---------------------------------------------------------------------------------|
A|---------------------------------------------------------------------------------|
E|---------------------------------------------------------------------------------|

e|-14-14-14-14-15-15-15-15-17~-----|
B|---------------------------------|
G|---------------------------------|
D|---------------------------------|
A|---------------------------------|
E|---------------------------------|

Chorus

      3 times                               
e|----------------------|----------------|
B|----------------------|----------------|
G|----------------------|----------------|
D|-9-9--7-7--5-5555555--|-9-9--7-7--5----|
A|-9-9--7-7--5-5555555--|-9-9--7-7--5----|
E|-7-7--5-5--3-3333333--|-7-7--5-5--3----|

   Solo 3 (play twice)
e|----------12--14--15--14--12------------------12--14--15--14--15--14--17~--|
B|-15-14-15---------------------14-15--15-14-15------------------------------|
G|---------------------------------------------------------------------------|
D|---------------------------------------------------------------------------|
A|---------------------------------------------------------------------------|
E|---------------------------------------------------------------------------|

e|---------------------------------------------------------------------------|
B|---------------------------------------------------------------------------|
G|----------------------------77777777----------------------------7777777-7--|
D|-55555555-44444444-77777777-77777777-55555555-44444444-77777777-7777777-7--|
A|-55555555-44444444-77777777-55555555-55555555-44444444-77777777-5555555-5--|
E|-33333333-22222222-55555555----------33333333-22222222-55555555------------|
  pm ....................................................................



| /  slide up
| \  slide down
| h  hammer-on
| p  pull-off
| ~  vibrato
| +  harmonic
| x  Mute note
===============================================================================
Tap to rate this tab
 
# A B C D E F G H I J K L M N O P Q R S T U V W X Y Z