Song name
# A B C D E F G H I J K L M N O P Q R S T U V W X Y Z

Flow - Icu tab

-------------------------------------------------------------------------------
			     Flow - I.C.U.
-------------------------------------------------------------------------------
Tabbed by:Jaythepunk

Tuning: Standard

intro/pre-verse
e|---------------------------------------------------------------------------|
B|---------------------------------------------------------------------------|
G|-----7-----------7---------------------------------------------------------|
D|-9-7-7-5-5-7-9-7-7-5-5-4---------------------------------------------------|x2
A|-9-7-5-5-5-7-9-7-5-5-5-4---------------------------------------------------|
E|-7-5---3-3-5-7-5---3-3-2---------------------------------------------------|

Chorus
e|---------------------------------------------------------------------------|
B|---------------------------------------------------------------------------|
G|---7-------7---------------------------------------------------------------|
D|-9-7-5-7-9-7-5-44444444----------------------------------------------------|
A|-9-5-5-7-9-5-5-44444444----------------------------------------------------|
E|-7---3-5-7---3-22222222----------------------------------------------------|
               pm^^^^^^^^

Bridge
e|---------------------------------------------------------------------------|
B|---------------------------------------------------------------------------|
G|---------------------------------------------------------------------------|
D|-9x9x9910------------------------------------------------------------------|x4
A|-9x9x9910------------------------------------------------------------------|
E|-7x7x778-------------------------------------------------------------------|

Solo                                                            | repeatx11 |
e|--------------------------------------------------------17-19-|------------|
B|--12-14-12-14-15-17-15-14-12-14----12----14-15-17-15-14-------|15-14-------|
G|--------------------------------14----12----------------------|------14----|
D|--------------------------------------------------------------|------------|
A|--------------------------------------------------------------|------------|
E|--------------------------------------------------------------|------------|

Couldn't work out the verses but if i ever do i'll put it up here as well

Key
| /  slide up
| \  slide down
| h  hammer-on
| p  pull-off
| ~  vibrato
| +  harmonic
| x  Mute note
| ^  Palm mute
| *  Let ring 
===============================================================================
Tap to rate this tab
# A B C D E F G H I J K L M N O P Q R S T U V W X Y Z