Song name
# A B C D E F G H I J K L M N O P Q R S T U V W X Y Z

Flow - Blaster tab

-------------------------------------------------------------------------------
			     Flow - Blaster
-------------------------------------------------------------------------------
Tabbed by:Jaythepunk
Email:

Tuning: Drop D
Intro (Lead) effect on, don't let each note ring, repeat as necessary
e|---------------------------------------------------------------------------|
B|---------------------------------------------------------------------------|
G|5---5---5------------------------------------------------------------------|
D|---------------------------------------------------------------------------|
A|--3---3--------------------------------------------------------------------|
E|---------------------------------------------------------------------------|

Verse
e|---xxxxxxx---xxxxxxx---xxxxxxx--------------------------|
B|---xxxxxxx---xxxxxxx---xxxxxxx--------------------------|
G|-5-xxxxxxx---xxxxxxx-5-xxxxxxx--------------------------|
D|-5-xxxxxxx-5-xxxxxxx-5-xxxxxxx--5-5-5-5-6---------------|
A|-3-xxxxxxx-5-xxxxxxx-3-xxxxxxx--5-5-5-5-6---------------|
E|---xxxxxxx-5-xxxxxxx---xxxxxxx--5-5-5-5-6---------------|
                                pm^ ^ ^ ^ 
                        
                    
Tap to rate this tab
 
# A B C D E F G H I J K L M N O P Q R S T U V W X Y Z