Flunk - Blue Monday tab

Band: Flunk
Song: Blue Monday (New Order cover)
Tabber: Andrew Biles

Standard tuning - Capo 1

Everything is relative to the capo.

|-----------------------------------0---|
|-----0-----------0-----------0---------|
|-------9---9-------4---4-------6-------|
|---9-----9-----4-----4-----6-----6-----|
|-7-----------2-----------4-------------|
|---------------------------------------|

---------------------------------------0------------|
------0--------------0-----------0-----------4------|
--------11----11-------4---4-------6-----6-----6----|
---11------11------4-----4-----6-----6-----6-----6--|
-9---------------2-----------4----------------------|
----------------------------------------------------|
Tap to rate this tab
 
# A B C D E F G H I J K L M N O P Q R S T U V W X Y Z