Song name
# A B C D E F G H I J K L M N O P Q R S T U V W X Y Z

Flux Of Pink Indians - Hitlers Still A Nazi tab

-----------------------------------------------------------------
Hitlers Still A Nazi - Flux Of Pink Indians
-----------------------------------------------------------------
Tabbed by: Dillon
Email: Angelic_oioi_upstart@yahoo.com

Tuning:Standard

Verse:
e|---------------------------------------------------------------|
B|---------------------------------------------------------------|
G|------9--------7-------5---------------------------------------|
D|-9999-9-9-7777-7-7-555-5-5-3333333-----------------------------|
A|-9999-7-9-7777-5-7-555-3-5-3333333-----------------------------|
E|-7777---7-5555---5-333---3-1111111-----------------------------|

Chorus:
e|---------------------------------------------------------------|
B|---------------------------------------------------------------|
G|---------------------------------------------------------------|
D|-7-9-7-5-7-5-7-9-7-9-11-9--------------------------------------|
A|-7-9-7-5-7-5-7-9-7-9-11-9--------------------------------------|
E|-5-7-5-3-5-3-5-7-5-7-9--7--------------------------------------|

| / slide up
| \ slide down
| h hammer-on
| p pull-off
| ~ vibrato
| + harmonic
| x Mute note

#----------------------------------PLEASE NOTE---------------------------------#
#This file is the author's own work and represents their interpretation of the #
#song. You may only use this file for private study, scholarship, or research. #
#------------------------------------------------------------------------------#
Tap to rate this tab
 
# A B C D E F G H I J K L M N O P Q R S T U V W X Y Z