Song name
# A B C D E F G H I J K L M N O P Q R S T U V W X Y Z

Flux Of Pink Indians - Charity Hilarity tab

Charity Hilarity
By Flux OF Pink Indians
Off of Strive To Survive

 INTRO
|-------------------------------------|
|-------------------------------------|
|-9--7--5--7-777-9---9--5--5--7-777-9-|
|-9--7--5--7-777-9-7-9--7--5--7-777-9-|
|-7--5--3--5-555-7-7-7--5--3--5-555-7-|
|------------------5------------------|

<1.2.3.4.>

 VERSE
|--------------------|
|--------------------|
|-9--7--5--7-777-9---|
|-9--7--5--7-777-9-7-|
|-7--5--3--5-555-7-7-|
|------------------5-|

 BRIDGE
|------------------------|
|------------------------|
|-------------99-1010-9--|
|-------------99-1010-9--|
|-------------77--8-8-7--|
|------------------------|

 CHORUS
|--8--8-8--8-8-8-5-55-555-|
|--8--8-8--8-8-8-5-55-555-|
|--9--9-9--9-9-9-6-66-666-|
|-10-1010-101010-7-77-777-|
|-10-1010-101010-7-77-777-|
|--8--8-8--8-8-8-5-55-555-|

Song Order-

Intro
Verse x5
Bridge x4
Chorus x4
Verse x3
Bridge x4
Chorus x4
Verse x3
Bridge x4

e-mail me at hella-address@sbcglobal.net for q's and a's
Tap to rate this tab
# A B C D E F G H I J K L M N O P Q R S T U V W X Y Z